  0
SECTION
  2
HEADER
  9
$ACADVER
  1
AC1014
  9
$ACADMAINTVER
 70
     9
  9
$DWGCODEPAGE
  3
ANSI_1252
  9
$INSBASE
 10
0.0
 20
0.0
 30
0.0
  9
$EXTMIN
 10
-37.326786
 20
-252.965729
 30
0.0
  9
$EXTMAX
 10
253.74852
 20
364.574707
 30
0.0
  9
$LIMMIN
 10
-37.326786
 20
-252.965729
  9
$LIMMAX
 10
253.74852
 20
364.574707
  9
$ORTHOMODE
 70
     0
  9
$REGENMODE
 70
     1
  9
$FILLMODE
 70
     1
  9
$QTEXTMODE
 70
     0
  9
$MIRRTEXT
 70
     1
  9
$DRAGMODE
 70
     2
  9
$LTSCALE
 40
1.0
  9
$OSMODE
 70
    37
  9
$ATTMODE
 70
     1
  9
$TEXTSIZE
 40
2.5
  9
$TRACEWID
 40
1.0
  9
$TEXTSTYLE
  7
STANDARD
  9
$CLAYER
  8
0
  9
$CELTYPE
  6
BYLAYER
  9
$CECOLOR
 62
   256
  9
$CELTSCALE
 40
1.0
  9
$DELOBJ
 70
     1
  9
$DISPSILH
 70
     0
  9
$DIMSCALE
 40
1.0
  9
$DIMASZ
 40
2.5
  9
$DIMEXO
 40
0.625
  9
$DIMDLI
 40
3.75
  9
$DIMRND
 40
0.0
  9
$DIMDLE
 40
0.0
  9
$DIMEXE
 40
1.25
  9
$DIMTP
 40
0.0
  9
$DIMTM
 40
0.0
  9
$DIMTXT
 40
2.5
  9
$DIMCEN
 40
2.5
  9
$DIMTSZ
 40
0.0
  9
$DIMTOL
 70
     0
  9
$DIMLIM
 70
     0
  9
$DIMTIH
 70
     0
  9
$DIMTOH
 70
     0
  9
$DIMSE1
 70
     0
  9
$DIMSE2
 70
     0
  9
$DIMTAD
 70
     1
  9
$DIMZIN
 70
     8
  9
$DIMBLK
  1

  9
$DIMASO
 70
     1
  9
$DIMSHO
 70
     1
  9
$DIMPOST
  1

  9
$DIMAPOST
  1

  9
$DIMALT
 70
     0
  9
$DIMALTD
 70
     3
  9
$DIMALTF
 40
0.03937
  9
$DIMLFAC
 40
1.0
  9
$DIMTOFL
 70
     1
  9
$DIMTVP
 40
0.0
  9
$DIMTIX
 70
     0
  9
$DIMSOXD
 70
     0
  9
$DIMSAH
 70
     0
  9
$DIMBLK1
  1

  9
$DIMBLK2
  1

  9
$DIMSTYLE
  2
ISO-25
  9
$DIMCLRD
 70
     0
  9
$DIMCLRE
 70
     0
  9
$DIMCLRT
 70
     0
  9
$DIMTFAC
 40
1.0
  9
$DIMGAP
 40
0.625
  9
$DIMJUST
 70
     0
  9
$DIMSD1
 70
     0
  9
$DIMSD2
 70
     0
  9
$DIMTOLJ
 70
     0
  9
$DIMTZIN
 70
     8
  9
$DIMALTZ
 70
     0
  9
$DIMALTTZ
 70
     0
  9
$DIMFIT
 70
     3
  9
$DIMUPT
 70
     0
  9
$DIMUNIT
 70
     2
  9
$DIMDEC
 70
     2
  9
$DIMTDEC
 70
     2
  9
$DIMALTU
 70
     2
  9
$DIMALTTD
 70
     3
  9
$DIMTXSTY
  7
STANDARD
  9
$DIMAUNIT
 70
     0
  9
$LUNITS
 70
     2
  9
$LUPREC
 70
     4
  9
$SKETCHINC
 40
1.0
  9
$FILLETRAD
 40
10.0
  9
$AUNITS
 70
     0
  9
$AUPREC
 70
     0
  9
$MENU
  1
.
  9
$ELEVATION
 40
0.0
  9
$PELEVATION
 40
0.0
  9
$THICKNESS
 40
0.0
  9
$LIMCHECK
 70
     0
  9
$CHAMFERA
 40
10.0
  9
$CHAMFERB
 40
10.0
  9
$CHAMFERC
 40
20.0
  9
$CHAMFERD
 40
0.0
  9
$SKPOLY
 70
     0
  9
$TDCREATE
 40
2456248.297469305
  9
$TDUPDATE
 40
2456248.297469317
  9
$TDINDWG
 40
0.0000000116
  9
$TDUSRTIMER
 40
0.0000000116
  9
$USRTIMER
 70
     1
  9
$ANGBASE
 50
0.0
  9
$ANGDIR
 70
     0
  9
$PDMODE
 70
     0
  9
$PDSIZE
 40
0.0
  9
$PLINEWID
 40
0.0
  9
$COORDS
 70
     1
  9
$SPLFRAME
 70
     0
  9
$SPLINETYPE
 70
     6
  9
$SPLINESEGS
 70
     8
  9
$ATTDIA
 70
     0
  9
$ATTREQ
 70
     1
  9
$HANDLING
 70
     1
  9
$HANDSEED
  5
44D
  9
$SURFTAB1
 70
     6
  9
$SURFTAB2
 70
     6
  9
$SURFTYPE
 70
     6
  9
$SURFU
 70
     6
  9
$SURFV
 70
     6
  9
$UCSNAME
  2

  9
$UCSORG
 10
0.0
 20
0.0
 30
0.0
  9
$UCSXDIR
 10
1.0
 20
0.0
 30
0.0
  9
$UCSYDIR
 10
0.0
 20
1.0
 30
0.0
  9
$PUCSNAME
  2

  9
$PUCSORG
 10
0.0
 20
0.0
 30
0.0
  9
$PUCSXDIR
 10
1.0
 20
0.0
 30
0.0
  9
$PUCSYDIR
 10
0.0
 20
1.0
 30
0.0
  9
$USERI1
 70
     0
  9
$USERI2
 70
     0
  9
$USERI3
 70
     0
  9
$USERI4
 70
     0
  9
$USERI5
 70
     0
  9
$USERR1
 40
0.0
  9
$USERR2
 40
0.0
  9
$USERR3
 40
0.0
  9
$USERR4
 40
0.0
  9
$USERR5
 40
0.0
  9
$WORLDVIEW
 70
     1
  9
$SHADEDGE
 70
     3
  9
$SHADEDIF
 70
    70
  9
$TILEMODE
 70
     1
  9
$MAXACTVP
 70
    64
  9
$PINSBASE
 10
0.0
 20
0.0
 30
0.0
  9
$PLIMCHECK
 70
     0
  9
$PEXTMIN
 10
1.000000E+20
 20
1.000000E+20
 30
1.000000E+20
  9
$PEXTMAX
 10
-1.000000E+20
 20
-1.000000E+20
 30
-1.000000E+20
  9
$PLIMMIN
 10
0.0
 20
0.0
  9
$PLIMMAX
 10
420.0
 20
297.0
  9
$UNITMODE
 70
     0
  9
$VISRETAIN
 70
     1
  9
$PLINEGEN
 70
     0
  9
$PSLTSCALE
 70
     1
  9
$TREEDEPTH
 70
  3020
  9
$PICKSTYLE
 70
     1
  9
$CMLSTYLE
  2
STANDARD
  9
$CMLJUST
 70
     0
  9
$CMLSCALE
 40
20.0
  9
$PROXYGRAPHICS
 70
     1
  9
$MEASUREMENT
 70
     1
  0
ENDSEC
  0
SECTION
  2
CLASSES
  0
CLASS
  1
ACDBDICTIONARYWDFLT
  2
AcDbDictionaryWithDefault
  3
ObjectDBX Classes
 90
        0
280
     0
281
     0
  0
CLASS
  1
VISUALSTYLE
  2
AcDbVisualStyle
  3
ObjectDBX Classes
 90
     4095
280
     0
281
     0
  0
CLASS
  1
SCALE
  2
AcDbScale
  3
ObjectDBX Classes
 90
     1153
280
     0
281
     0
  0
CLASS
  1
DICTIONARYVAR
  2
AcDbDictionaryVar
  3
ObjectDBX Classes
 90
        0
280
     0
281
     0
  0
CLASS
  1
XRECORD
  2
AcDbXrecord
  3
AutoCAD 2000
 90
        0
280
     0
281
     0
  0
CLASS
  1
LWPOLYLINE
  2
AcDbPolyline
  3
AutoCAD 2000
 90
        0
280
     0
281
     1
  0
CLASS
  1
HATCH
  2
AcDbHatch
  3
AutoCAD 2000
 90
        0
280
     0
281
     1
  0
CLASS
  1
ACDBPLACEHOLDER
  2
AcDbPlaceHolder
  3
ObjectDBX Classes
 90
        0
280
     0
281
     0
  0
CLASS
  1
LAYOUT
  2
AcDbLayout
  3
ObjectDBX Classes
 90
        0
280
     0
281
     0
  0
ENDSEC
  0
SECTION
  2
TABLES
  0
TABLE
  2
VPORT
  5
8
330
0
100
AcDbSymbolTable
 70
     1
  0
VPORT
  5
29
330
8
100
AcDbSymbolTableRecord
100
AcDbViewportTableRecord
  2
*ACTIVE
 70
     0
 10
0.0
 20
0.0
 11
1.0
 21
1.0
 12
344.186916
 22
148.5
 13
0.0
 23
0.0
 14
10.0
 24
10.0
 15
10.0
 25
10.0
 16
0.0
 26
0.0
 36
1.0
 17
0.0
 27
0.0
 37
0.0
 40
297.0
 41
1.972973
 42
50.0
 43
0.0
 44
0.0
 50
0.0
 51
0.0
 71
     0
 72
   100
 73
     1
 74
     3
 75
     0
 76
     0
 77
     0
 78
     0
  0
ENDTAB
  0
TABLE
  2
LTYPE
  5
5
330
0
100
AcDbSymbolTable
 70
     3
  0
LTYPE
  5
14
330
5
100
AcDbSymbolTableRecord
100
AcDbLinetypeTableRecord
  2
BYBLOCK
 70
     0
  3

 72
    65
 73
     0
 40
0.0
  0
LTYPE
  5
15
330
5
100
AcDbSymbolTableRecord
100
AcDbLinetypeTableRecord
  2
BYLAYER
 70
     0
  3

 72
    65
 73
     0
 40
0.0
  0
LTYPE
  5
16
330
5
100
AcDbSymbolTableRecord
100
AcDbLinetypeTableRecord
  2
CONTINUOUS
 70
     0
  3
Solid line
 72
    65
 73
     0
 40
0.0
  0
LTYPE
  5
3B
330
5
100
AcDbSymbolTableRecord
100
AcDbLinetypeTableRecord
  2
HIDDEN2
 70
     0
  3
Hidden (.5x) _ _ _ _ _ _ _ _ _ _ _ _ _ _ _ _ _ 
 72
    65
 73
     2
 40
4.7625
 49
3.175
 74
     0
 49
-1.5875
 74
     0
  0
LTYPE
  5
6D
330
5
100
AcDbSymbolTableRecord
100
AcDbLinetypeTableRecord
  2
DASHDOT
 70
     0
  3
Dash dot __ . __ . __ . __ . __ . __ . __ . __
 72
    65
 73
     4
 40
25.4
 49
12.7
 74
     0
 49
-6.35
 74
     0
 49
0.0
 74
     0
 49
-6.35
 74
     0
  0
ENDTAB
  0
TABLE
  2
LAYER
  5
2
330
0
100
AcDbSymbolTable
 70
     2
  0
LAYER
  5
10
330
2
100
AcDbSymbolTableRecord
100
AcDbLayerTableRecord
  2
0
 70
     1
 62
    -1
  6
HIDDEN2
  0
LAYER
  5
3C
330
2
100
AcDbSymbolTableRecord
100
AcDbLayerTableRecord
  2
109
 70
     0
 62
     1
  6
HIDDEN2
  0
ENDTAB
  0
TABLE
  2
STYLE
  5
3
330
0
100
AcDbSymbolTable
 70
     3
  0
STYLE
  5
11
330
3
100
AcDbSymbolTableRecord
100
AcDbTextStyleTableRecord
  2
STANDARD
 70
     0
 40
0.0
 41
1.0
 50
0.0
 71
     0
 42
2.5
  3
txt
  4

  0
STYLE
  5
3D
330
3
100
AcDbSymbolTableRecord
100
AcDbTextStyleTableRecord
  2
DEFAULT
 70
     0
 40
0.0
 41
1.0
 50
0.0
 71
     0
 42
0.2
  3

  4

1001
ACAD
1000
txt
1071
        0
  0
STYLE
  5
3E
330
3
100
AcDbSymbolTableRecord
100
AcDbTextStyleTableRecord
  2
FSB
 70
     0
 40
0.0
 41
1.0
 50
0.0
 71
     0
 42
0.2
  3

  4

1001
ACAD
1000
Arial
1071
        0
  0
ENDTAB
  0
TABLE
  2
VIEW
  5
6
330
0
100
AcDbSymbolTable
 70
     0
  0
ENDTAB
  0
TABLE
  2
UCS
  5
7
330
0
100
AcDbSymbolTable
 70
     0
  0
ENDTAB
  0
TABLE
  2
APPID
  5
9
330
0
100
AcDbSymbolTable
 70
     1
  0
APPID
  5
12
330
9
100
AcDbSymbolTableRecord
100
AcDbRegAppTableRecord
  2
ACAD
 70
     0
  0
ENDTAB
  0
TABLE
  2
DIMSTYLE
  5
A
330
0
100
AcDbSymbolTable
 70
     3
  0
DIMSTYLE
105
27
330
A
100
AcDbSymbolTableRecord
100
AcDbDimStyleTableRecord
  2
ISO-25
 70
     0
  3

  4

  5

  6

  7

 40
1.0
 41
2.5
 42
0.625
 43
3.75
 44
1.25
 45
0.0
 46
0.0
 47
0.0
 48
0.0
140
2.5
141
2.5
142
0.0
143
0.03937
144
1.0
145
0.0
146
1.0
147
0.625
 71
     0
 72
     0
 73
     0
 74
     0
 75
     0
 76
     0
 77
     1
 78
     8
170
     0
171
     3
172
     1
173
     0
174
     0
175
     0
176
     0
177
     0
178
     0
270
     2
271
     2
272
     2
273
     2
274
     3
340
11
275
     0
280
     0
281
     0
282
     0
283
     0
284
     8
285
     0
286
     0
287
     3
288
     0
  0
DIMSTYLE
105
3F
330
A
100
AcDbSymbolTableRecord
100
AcDbDimStyleTableRecord
  2
DEFAULT
 70
     0
  3
<>
  4

  5
CLOSED
  6

  7

 40
1.0
 41
4.375
 42
1.05
 43
0.38
 44
2.1
 45
0.0
 46
0.0
 47
0.0
 48
0.0
140
3.5
141
0.09
142
0.0
143
25.4
144
1.0
145
0.0
146
0.4
147
1.75
 71
     0
 72
     0
 73
     0
 74
     0
 75
     0
 76
     0
 77
     1
 78
     8
170
     0
171
     2
172
     0
173
     0
174
     0
175
     0
176
     0
177
     0
178
     1
270
     2
271
     2
272
     3
273
     2
274
     2
340
3D
275
     0
280
     0
281
     0
282
     0
283
     1
284
     8
285
     0
286
     0
287
     3
288
     0
  0
DIMSTYLE
105
47
330
A
100
AcDbSymbolTableRecord
100
AcDbDimStyleTableRecord
  2
FSB
 70
     0
  3
<>
  4

  5
CLOSED
  6

  7

 40
1.0
 41
4.375
 42
1.05
 43
0.38
 44
2.1
 45
0.0
 46
0.0
 47
0.0
 48
0.0
140
3.5
141
0.09
142
0.0
143
25.4
144
1.0
145
0.0
146
0.7
147
1.05
 71
     0
 72
     0
 73
     0
 74
     0
 75
     0
 76
     0
 77
     1
 78
     8
170
     0
171
     2
172
     0
173
     0
174
     0
175
     0
176
     1
177
     1
178
     2
270
     2
271
     2
272
     3
273
     2
274
     2
340
3E
275
     0
280
     0
281
     0
282
     0
283
     1
284
     8
285
     0
286
     0
287
     3
288
     0
  0
ENDTAB
  0
TABLE
  2
BLOCK_RECORD
  5
1
330
0
100
AcDbSymbolTable
 70
     2
  0
BLOCK_RECORD
  5
1F
330
1
100
AcDbSymbolTableRecord
100
AcDbBlockTableRecord
  2
*MODEL_SPACE
  0
BLOCK_RECORD
  5
1B
330
1
100
AcDbSymbolTableRecord
100
AcDbBlockTableRecord
  2
*PAPER_SPACE
  0
BLOCK_RECORD
  5
40
330
1
100
AcDbSymbolTableRecord
100
AcDbBlockTableRecord
  2
_CLOSED
  0
ENDTAB
  0
ENDSEC
  0
SECTION
  2
BLOCKS
  0
BLOCK
  5
20
330
1F
100
AcDbEntity
  8
0
100
AcDbBlockBegin
  2
*MODEL_SPACE
 70
     0
 10
0.0
 20
0.0
 30
0.0
  3
*MODEL_SPACE
  1

  0
ENDBLK
  5
21
330
1F
100
AcDbEntity
  8
0
100
AcDbBlockEnd
  0
BLOCK
  5
1C
330
1B
100
AcDbEntity
 67
     1
  8
0
100
AcDbBlockBegin
  2
*PAPER_SPACE
 70
     0
 10
0.0
 20
0.0
 30
0.0
  3
*PAPER_SPACE
  1

  0
ENDBLK
  5
1D
330
1B
100
AcDbEntity
 67
     1
  8
0
100
AcDbBlockEnd
  0
BLOCK
  5
41
330
40
100
AcDbEntity
  8
0
100
AcDbBlockBegin
  2
_CLOSED
 70
     0
 10
0.0
 20
0.0
 30
0.0
  3
_CLOSED
  1

  0
LINE
  5
43
330
40
100
AcDbEntity
  8
0
  6
BYBLOCK
 62
     0
100
AcDbLine
 10
-1.0
 20
0.166667
 30
0.0
 11
0.0
 21
0.0
 31
0.0
  0
LINE
  5
44
330
40
100
AcDbEntity
  8
0
  6
BYBLOCK
 62
     0
100
AcDbLine
 10
0.0
 20
0.0
 30
0.0
 11
-1.0
 21
-0.166667
 31
0.0
  0
LINE
  5
45
330
40
100
AcDbEntity
  8
0
  6
BYBLOCK
 62
     0
100
AcDbLine
 10
-1.0
 20
0.166667
 30
0.0
 11
-1.0
 21
-0.166667
 31
0.0
  0
LINE
  5
46
330
40
100
AcDbEntity
  8
0
  6
BYBLOCK
 62
     0
100
AcDbLine
 10
0.0
 20
0.0
 30
0.0
 11
-1.0
 21
0.0
 31
0.0
  0
ENDBLK
  5
42
330
40
100
AcDbEntity
  8
0
100
AcDbBlockEnd
  0
ENDSEC
  0
SECTION
  2
ENTITIES
  0
TEXT
  5
6A
330
1F
100
AcDbEntity
  8
0
  6
CONTINUOUS
 62
     2
 60
     1
100
AcDbText
 10
102.62816
 20
170.541855
 30
0.0
 40
3.5
  1
a
  7
FSB
 72
     1
 11
103.98616
 21
174.041855
 31
0.0
100
AcDbText
 73
     3
  0
TEXT
  5
6B
330
1F
100
AcDbEntity
  8
0
  6
CONTINUOUS
 62
     2
 60
     1
100
AcDbText
 10
102.62816
 20
94.540581
 30
0.0
 40
3.5
  1
b
  7
FSB
 72
     1
 11
103.98616
 21
98.040581
 31
0.0
100
AcDbText
 73
     3
  0
TEXT
  5
6C
330
1F
100
AcDbEntity
  8
0
  6
CONTINUOUS
 62
     2
 60
     1
100
AcDbText
 10
200.907833
 20
170.54184
 30
0.0
 40
3.5
  1
c
  7
FSB
 72
     1
 11
202.129333
 21
174.04184
 31
0.0
100
AcDbText
 73
     3
  0
LINE
  5
6E
330
1F
100
AcDbEntity
  8
109
  6
DASHDOT
 62
     1
100
AcDbLine
 10
36.673214
 20
0.0
 30
0.0
 11
-37.326786
 21
0.0
 31
0.0
  0
LINE
  5
6F
330
1F
100
AcDbEntity
  8
109
  6
DASHDOT
 62
     1
100
AcDbLine
 10
0.0
 20
-36.794101
 30
0.0
 11
0.0
 21
36.205899
 31
0.0
  0
LINE
  5
70
330
1F
100
AcDbEntity
  8
109
  6
CONTINUOUS
 62
     7
100
AcDbLine
 10
24.803268
 20
24.303325
 30
0.0
 11
24.803268
 21
-24.303355
 31
0.0
  0
LINE
  5
71
330
1F
100
AcDbEntity
  8
109
  6
CONTINUOUS
 62
     7
100
AcDbLine
 10
24.303344
 20
-24.803279
 30
0.0
 11
-24.303336
 21
-24.803279
 31
0.0
  0
LINE
  5
72
330
1F
100
AcDbEntity
  8
109
  6
CONTINUOUS
 62
     7
100
AcDbLine
 10
24.303344
 20
24.803249
 30
0.0
 11
-24.303336
 21
24.803249
 31
0.0
  0
LINE
  5
73
330
1F
100
AcDbEntity
  8
109
  6
CONTINUOUS
 62
     7
100
AcDbLine
 10
-24.80326
 20
24.303325
 30
0.0
 11
-24.80326
 21
-24.303355
 31
0.0
  0
ARC
  5
74
330
1F
100
AcDbEntity
  8
109
  6
CONTINUOUS
 62
     7
100
AcDbCircle
 10
24.303375
 20
24.303356
 30
0.0
 40
0.4998923192028815
100
AcDbArc
 50
359.996386
 51
90.003614
  0
ARC
  5
75
330
1F
100
AcDbEntity
  8
109
  6
CONTINUOUS
 62
     7
100
AcDbCircle
 10
24.303375
 20
-24.303387
 30
0.0
 40
0.4998923192026079
100
AcDbArc
 50
269.996386
 51
0.003614
  0
ARC
  5
76
330
1F
100
AcDbEntity
  8
109
  6
CONTINUOUS
 62
     7
100
AcDbCircle
 10
-24.303368
 20
-24.303387
 30
0.0
 40
0.4998923192029152
100
AcDbArc
 50
179.996386
 51
270.003614
  0
ARC
  5
77
330
1F
100
AcDbEntity
  8
109
  6
CONTINUOUS
 62
     7
100
AcDbCircle
 10
-24.303368
 20
24.303356
 30
0.0
 40
0.4998923192031763
100
AcDbArc
 50
89.996386
 51
180.003614
  0
LINE
  5
78
330
1F
100
AcDbEntity
  8
109
  6
CONTINUOUS
 62
     7
100
AcDbLine
 10
-34.999996
 20
33.999985
 30
0.0
 11
-34.999996
 21
-34.000015
 31
0.0
  0
LINE
  5
79
330
1F
100
AcDbEntity
  8
109
  6
CONTINUOUS
 62
     7
100
AcDbLine
 10
34.000004
 20
34.999985
 30
0.0
 11
-33.999996
 21
34.999985
 31
0.0
  0
LINE
  5
7A
330
1F
100
AcDbEntity
  8
109
  6
CONTINUOUS
 62
     7
100
AcDbLine
 10
35.000004
 20
-34.000015
 30
0.0
 11
35.000004
 21
33.999985
 31
0.0
  0
LINE
  5
7B
330
1F
100
AcDbEntity
  8
109
  6
CONTINUOUS
 62
     7
100
AcDbLine
 10
-33.999996
 20
-35.000015
 30
0.0
 11
34.000004
 21
-35.000015
 31
0.0
  0
ARC
  5
7C
330
1F
100
AcDbEntity
  8
109
  6
CONTINUOUS
 62
     7
100
AcDbCircle
 10
-33.999996
 20
-34.000015
 30
0.0
 40
1.0
100
AcDbArc
 50
180.0
 51
270.0
  0
ARC
  5
7D
330
1F
100
AcDbEntity
  8
109
  6
CONTINUOUS
 62
     7
100
AcDbCircle
 10
-33.999996
 20
33.999985
 30
0.0
 40
1.0
100
AcDbArc
 50
90.0
 51
180.0
  0
ARC
  5
7E
330
1F
100
AcDbEntity
  8
109
  6
CONTINUOUS
 62
     7
100
AcDbCircle
 10
34.000004
 20
33.999985
 30
0.0
 40
1.0
100
AcDbArc
 50
360.0
 51
90.0
  0
ARC
  5
7F
330
1F
100
AcDbEntity
  8
109
  6
CONTINUOUS
 62
     7
100
AcDbCircle
 10
34.000004
 20
-34.000015
 30
0.0
 40
1.0
100
AcDbArc
 50
270.0
 51
360.0
  0
LINE
  5
80
330
1F
100
AcDbEntity
  8
109
  6
CONTINUOUS
 62
     7
100
AcDbLine
 10
25.000004
 20
24.499985
 30
0.0
 11
25.000004
 21
-24.500015
 31
0.0
  0
LINE
  5
81
330
1F
100
AcDbEntity
  8
109
  6
CONTINUOUS
 62
     7
100
AcDbLine
 10
24.500004
 20
-25.000015
 30
0.0
 11
-24.499996
 21
-25.000015
 31
0.0
  0
LINE
  5
82
330
1F
100
AcDbEntity
  8
109
  6
CONTINUOUS
 62
     7
100
AcDbLine
 10
-24.499996
 20
24.999985
 30
0.0
 11
24.500004
 21
24.999985
 31
0.0
  0
LINE
  5
83
330
1F
100
AcDbEntity
  8
109
  6
CONTINUOUS
 62
     7
100
AcDbLine
 10
-24.999996
 20
-24.500015
 30
0.0
 11
-24.999996
 21
24.499985
 31
0.0
  0
ARC
  5
84
330
1F
100
AcDbEntity
  8
109
  6
CONTINUOUS
 62
     7
100
AcDbCircle
 10
24.500004
 20
24.499985
 30
0.0
 40
0.5
100
AcDbArc
 50
360.0
 51
90.0
  0
ARC
  5
85
330
1F
100
AcDbEntity
  8
109
  6
CONTINUOUS
 62
     7
100
AcDbCircle
 10
24.500004
 20
-24.500015
 30
0.0
 40
0.5
100
AcDbArc
 50
270.0
 51
360.0
  0
ARC
  5
86
330
1F
100
AcDbEntity
  8
109
  6
CONTINUOUS
 62
     7
100
AcDbCircle
 10
-24.499996
 20
-24.500015
 30
0.0
 40
0.5
100
AcDbArc
 50
180.0
 51
270.0
  0
ARC
  5
87
330
1F
100
AcDbEntity
  8
109
  6
CONTINUOUS
 62
     7
100
AcDbCircle
 10
-24.499996
 20
24.499985
 30
0.0
 40
0.5
100
AcDbArc
 50
90.0
 51
180.0
  0
LINE
  5
88
330
1F
100
AcDbEntity
  8
109
  6
CONTINUOUS
 62
     7
100
AcDbLine
 10
232.999999
 20
31.74997
 30
0.0
 11
233.194793
 21
31.756772
 31
0.0
  0
LINE
  5
89
330
1F
100
AcDbEntity
  8
109
  6
CONTINUOUS
 62
     7
100
AcDbLine
 10
232.999999
 20
31.264413
 30
0.0
 11
244.999999
 21
31.554942
 31
0.0
  0
LINE
  5
8A
330
1F
100
AcDbEntity
  8
109
  6
CONTINUOUS
 62
     7
100
AcDbLine
 10
233.0
 20
28.416103
 30
0.0
 11
245.0
 21
28.463167
 31
0.0
  0
LINE
  5
8B
330
1F
100
AcDbEntity
  8
109
  6
CONTINUOUS
 62
     7
100
AcDbLine
 10
233.0
 20
24.62497
 30
0.0
 11
245.0
 21
24.468594
 31
0.0
  0
LINE
  5
8C
330
1F
100
AcDbEntity
  8
109
  6
CONTINUOUS
 62
     7
100
AcDbLine
 10
244.999999
 20
32.062612
 30
0.0
 11
244.999999
 21
32.694174
 31
0.0
  0
LINE
  5
8D
330
1F
100
AcDbEntity
  8
109
  6
CONTINUOUS
 62
     7
100
AcDbLine
 10
244.999999
 20
32.062612
 30
0.0
 11
244.999999
 21
31.554942
 31
0.0
  0
LINE
  5
8E
330
1F
100
AcDbEntity
  8
109
  6
CONTINUOUS
 62
     7
100
AcDbLine
 10
245.0
 20
28.865784
 30
0.0
 11
245.0
 21
28.463167
 31
0.0
  0
LINE
  5
8F
330
1F
100
AcDbEntity
  8
109
  6
CONTINUOUS
 62
     7
100
AcDbLine
 10
245.0
 20
24.731383
 30
0.0
 11
245.0
 21
24.468594
 31
0.0
  0
LINE
  5
90
330
1F
100
AcDbEntity
  8
109
  6
CONTINUOUS
 62
     7
100
AcDbLine
 10
233.0
 20
13.99997
 30
0.0
 11
245.0
 21
14.419019
 31
0.0
  0
LINE
  5
91
330
1F
100
AcDbEntity
  8
109
  6
CONTINUOUS
 62
     7
100
AcDbLine
 10
233.0
 20
9.99997
 30
0.0
 11
245.0
 21
9.58092
 31
0.0
  0
LINE
  5
92
330
1F
100
AcDbEntity
  8
109
  6
CONTINUOUS
 62
     7
100
AcDbLine
 10
233.0
 20
5.99997
 30
0.0
 11
245.0
 21
6.419019
 31
0.0
  0
LINE
  5
93
330
1F
100
AcDbEntity
  8
109
  6
CONTINUOUS
 62
     7
100
AcDbLine
 10
233.0
 20
1.99997
 30
0.0
 11
245.0
 21
1.58092
 31
0.0
  0
ARC
  5
94
330
1F
100
AcDbEntity
  8
109
  6
CONTINUOUS
 62
     7
100
AcDbCircle
 10
1121.778839
 20
-11083.809903
 30
0.0
 40
11151.02703993898
100
AcDbArc
 50
94.509686
 51
94.571538
  0
ARC
  5
95
330
1F
100
AcDbEntity
  8
109
  6
CONTINUOUS
 62
     7
100
AcDbCircle
 10
1128.969274
 20
-13347.987646
 30
0.0
 40
13409.21871637859
100
AcDbArc
 50
93.779822
 51
93.83121
  0
ARC
  5
96
330
1F
100
AcDbEntity
  8
109
  6
CONTINUOUS
 62
     7
100
AcDbCircle
 10
1513.828616
 20
-14932.257558
 30
0.0
 40
15016.82090776536
100
AcDbArc
 50
94.846918
 51
94.89287
  0
ARC
  5
97
330
1F
100
AcDbEntity
  8
109
  6
CONTINUOUS
 62
     7
100
AcDbCircle
 10
869.207068
 20
-16788.803851
 30
0.0
 40
16829.24972807446
100
AcDbArc
 50
92.125623
 51
92.166506
  0
ARC
  5
98
330
1F
100
AcDbEntity
  8
109
  6
CONTINUOUS
 62
     7
100
AcDbCircle
 10
1789.833796
 20
-20105.797001
 30
0.0
 40
20192.56160095745
100
AcDbArc
 50
94.387706
 51
94.421857
  0
LINE
  5
99
330
1F
100
AcDbEntity
  8
109
  6
CONTINUOUS
 62
     7
100
AcDbLine
 10
245.0
 20
24.731383
 30
0.0
 11
233.0
 21
24.62497
 31
0.0
  0
LINE
  5
9A
330
1F
100
AcDbEntity
  8
109
  6
CONTINUOUS
 62
     7
100
AcDbLine
 10
245.0
 20
21.83585
 30
0.0
 11
233.0
 21
21.188141
 31
0.0
  0
LINE
  5
9B
330
1F
100
AcDbEntity
  8
109
  6
CONTINUOUS
 62
     7
100
AcDbLine
 10
245.0
 20
17.58092
 30
0.0
 11
233.0
 21
17.99997
 31
0.0
  0
LINE
  5
9C
330
1F
100
AcDbEntity
  8
109
  6
CONTINUOUS
 62
     7
100
AcDbLine
 10
232.999999
 20
31.74997
 30
0.0
 11
242.599848
 21
32.505494
 31
0.0
  0
LINE
  5
9D
330
1F
100
AcDbEntity
  8
109
  6
CONTINUOUS
 62
     7
100
AcDbLine
 10
249.999999
 20
32.017425
 30
0.0
 11
244.999999
 21
32.1047
 31
0.0
  0
LINE
  5
9E
330
1F
100
AcDbEntity
  8
109
  6
CONTINUOUS
 62
     7
100
AcDbLine
 10
233.0
 20
-6.00003
 30
0.0
 11
245.0
 21
-6.41908
 31
0.0
  0
LINE
  5
9F
330
1F
100
AcDbEntity
  8
109
  6
CONTINUOUS
 62
     7
100
AcDbLine
 10
233.0
 20
-2.00003
 30
0.0
 11
245.0
 21
-1.580981
 31
0.0
  0
LINE
  5
A0
330
1F
100
AcDbEntity
  8
109
  6
CONTINUOUS
 62
     7
100
AcDbLine
 10
233.0
 20
-14.00003
 30
0.0
 11
245.0
 21
-14.41908
 31
0.0
  0
LINE
  5
A1
330
1F
100
AcDbEntity
  8
109
  6
CONTINUOUS
 62
     7
100
AcDbLine
 10
233.0
 20
-10.00003
 30
0.0
 11
245.0
 21
-9.580981
 31
0.0
  0
LINE
  5
A2
330
1F
100
AcDbEntity
  8
109
  6
CONTINUOUS
 62
     7
100
AcDbLine
 10
249.999999
 20
-32.017486
 30
0.0
 11
244.999999
 21
-32.104761
 31
0.0
  0
LINE
  5
A3
330
1F
100
AcDbEntity
  8
109
  6
CONTINUOUS
 62
     7
100
AcDbLine
 10
245.0
 20
-17.580981
 30
0.0
 11
233.0
 21
-18.00003
 31
0.0
  0
LINE
  5
A4
330
1F
100
AcDbEntity
  8
109
  6
CONTINUOUS
 62
     7
100
AcDbLine
 10
245.0
 20
-21.83591
 30
0.0
 11
233.0
 21
-21.188202
 31
0.0
  0
LINE
  5
A5
330
1F
100
AcDbEntity
  8
109
  6
CONTINUOUS
 62
     7
100
AcDbLine
 10
245.0
 20
-24.731444
 30
0.0
 11
233.0
 21
-24.62503
 31
0.0
  0
ARC
  5
A6
330
1F
100
AcDbEntity
  8
109
  6
CONTINUOUS
 62
     7
100
AcDbCircle
 10
1789.833796
 20
20105.79694
 30
0.0
 40
20192.56160100103
100
AcDbArc
 50
265.578143
 51
265.612294
  0
ARC
  5
A7
330
1F
100
AcDbEntity
  8
109
  6
CONTINUOUS
 62
     7
100
AcDbCircle
 10
869.207068
 20
16788.80379
 30
0.0
 40
16829.24972810276
100
AcDbArc
 50
267.833494
 51
267.874377
  0
ARC
  5
A8
330
1F
100
AcDbEntity
  8
109
  6
CONTINUOUS
 62
     7
100
AcDbCircle
 10
1513.828616
 20
14932.257498
 30
0.0
 40
15016.82090782859
100
AcDbArc
 50
265.10713
 51
265.153082
  0
ARC
  5
A9
330
1F
100
AcDbEntity
  8
109
  6
CONTINUOUS
 62
     7
100
AcDbCircle
 10
1128.969274
 20
13347.987585
 30
0.0
 40
13409.21871641158
100
AcDbArc
 50
266.16879
 51
266.220178
  0
LINE
  5
AA
330
1F
100
AcDbEntity
  8
109
  6
CONTINUOUS
 62
     7
100
AcDbLine
 10
244.999999
 20
-32.062673
 30
0.0
 11
244.999999
 21
-32.694235
 31
0.0
  0
ARC
  5
AB
330
1F
100
AcDbEntity
  8
109
  6
CONTINUOUS
 62
     7
100
AcDbCircle
 10
1121.778839
 20
11083.809842
 30
0.0
 40
11151.02703994888
100
AcDbArc
 50
265.428462
 51
265.490314
  0
LINE
  5
AC
330
1F
100
AcDbEntity
  8
109
  6
CONTINUOUS
 62
     7
100
AcDbLine
 10
232.999999
 20
-31.75003
 30
0.0
 11
242.599848
 21
-32.505555
 31
0.0
  0
LINE
  5
AD
330
1F
100
AcDbEntity
  8
109
  6
CONTINUOUS
 62
     7
100
AcDbLine
 10
232.999999
 20
-31.75003
 30
0.0
 11
233.194793
 21
-31.756833
 31
0.0
  0
LINE
  5
AE
330
1F
100
AcDbEntity
  8
109
  6
CONTINUOUS
 62
     7
100
AcDbLine
 10
232.999999
 20
-31.264473
 30
0.0
 11
244.999999
 21
-31.555003
 31
0.0
  0
LINE
  5
AF
330
1F
100
AcDbEntity
  8
109
  6
CONTINUOUS
 62
     7
100
AcDbLine
 10
244.999999
 20
-32.062673
 30
0.0
 11
244.999999
 21
-31.555003
 31
0.0
  0
LINE
  5
B0
330
1F
100
AcDbEntity
  8
109
  6
CONTINUOUS
 62
     7
100
AcDbLine
 10
233.0
 20
-28.416164
 30
0.0
 11
245.0
 21
-28.463228
 31
0.0
  0
LINE
  5
B1
330
1F
100
AcDbEntity
  8
109
  6
CONTINUOUS
 62
     7
100
AcDbLine
 10
245.0
 20
-28.865845
 30
0.0
 11
245.0
 21
-28.463228
 31
0.0
  0
LINE
  5
B2
330
1F
100
AcDbEntity
  8
109
  6
CONTINUOUS
 62
     7
100
AcDbLine
 10
233.0
 20
-24.62503
 30
0.0
 11
245.0
 21
-24.468654
 31
0.0
  0
LINE
  5
B3
330
1F
100
AcDbEntity
  8
109
  6
CONTINUOUS
 62
     7
100
AcDbLine
 10
245.0
 20
-24.731444
 30
0.0
 11
245.0
 21
-24.468654
 31
0.0
  0
LINE
  5
B4
330
1F
100
AcDbEntity
  8
109
  6
CONTINUOUS
 62
     7
100
AcDbLine
 10
250.0
 20
-35.00003
 30
0.0
 11
252.0
 21
-35.00003
 31
0.0
  0
LINE
  5
B5
330
1F
100
AcDbEntity
  8
109
  6
CONTINUOUS
 62
     7
100
AcDbLine
 10
250.0
 20
34.99997
 30
0.0
 11
252.0
 21
34.99997
 31
0.0
  0
LINE
  5
B6
330
1F
100
AcDbEntity
  8
109
  6
CONTINUOUS
 62
     7
100
AcDbLine
 10
24.625004
 20
-233.0
 30
0.0
 11
24.468628
 21
-245.0
 31
0.0
  0
LINE
  5
B7
330
1F
100
AcDbEntity
  8
109
  6
CONTINUOUS
 62
     7
100
AcDbLine
 10
-24.624996
 20
-233.0
 30
0.0
 11
-24.46862
 21
-245.0
 31
0.0
  0
LINE
  5
B8
330
1F
100
AcDbEntity
  8
109
  6
CONTINUOUS
 62
     7
100
AcDbLine
 10
-28.416129
 20
-233.0
 30
0.0
 11
-28.463194
 21
-245.0
 31
0.0
  0
LINE
  5
B9
330
1F
100
AcDbEntity
  8
109
  6
CONTINUOUS
 62
     7
100
AcDbLine
 10
-31.264439
 20
-232.999999
 30
0.0
 11
-31.554969
 21
-244.999999
 31
0.0
  0
LINE
  5
BA
330
1F
100
AcDbEntity
  8
109
  6
CONTINUOUS
 62
     7
100
AcDbLine
 10
-31.749996
 20
-232.999999
 30
0.0
 11
-31.756799
 21
-233.194793
 31
0.0
  0
LINE
  5
BB
330
1F
100
AcDbEntity
  8
109
  6
CONTINUOUS
 62
     7
100
AcDbLine
 10
31.750004
 20
-232.999999
 30
0.0
 11
31.756806
 21
-233.194793
 31
0.0
  0
LINE
  5
BC
330
1F
100
AcDbEntity
  8
109
  6
CONTINUOUS
 62
     7
100
AcDbLine
 10
31.264447
 20
-232.999999
 30
0.0
 11
31.554977
 21
-244.999999
 31
0.0
  0
LINE
  5
BD
330
1F
100
AcDbEntity
  8
109
  6
CONTINUOUS
 62
     7
100
AcDbLine
 10
28.416137
 20
-233.0
 30
0.0
 11
28.463202
 21
-245.0
 31
0.0
  0
LINE
  5
BE
330
1F
100
AcDbEntity
  8
109
  6
CONTINUOUS
 62
     7
100
AcDbLine
 10
-31.749996
 20
-232.999999
 30
0.0
 11
-32.505521
 21
-242.599848
 31
0.0
  0
LINE
  5
BF
330
1F
100
AcDbEntity
  8
109
  6
CONTINUOUS
 62
     7
100
AcDbLine
 10
-17.580947
 20
-245.0
 30
0.0
 11
-17.999996
 21
-233.0
 31
0.0
  0
LINE
  5
C0
330
1F
100
AcDbEntity
  8
109
  6
CONTINUOUS
 62
     7
100
AcDbLine
 10
-21.835876
 20
-245.0
 30
0.0
 11
-21.188168
 21
-233.0
 31
0.0
  0
LINE
  5
C1
330
1F
100
AcDbEntity
  8
109
  6
CONTINUOUS
 62
     7
100
AcDbLine
 10
-24.731409
 20
-245.0
 30
0.0
 11
-24.624996
 21
-233.0
 31
0.0
  0
ARC
  5
C2
330
1F
100
AcDbEntity
  8
109
  6
CONTINUOUS
 62
     7
100
AcDbCircle
 10
20105.796974
 20
-1789.833796
 30
0.0
 40
20192.56160079534
100
AcDbArc
 50
175.578143
 51
175.612294
  0
ARC
  5
C3
330
1F
100
AcDbEntity
  8
109
  6
CONTINUOUS
 62
     7
100
AcDbCircle
 10
16788.803825
 20
-869.207068
 30
0.0
 40
16829.24972832585
100
AcDbArc
 50
177.833494
 51
177.874377
  0
ARC
  5
C4
330
1F
100
AcDbEntity
  8
109
  6
CONTINUOUS
 62
     7
100
AcDbCircle
 10
14932.257532
 20
-1513.828616
 30
0.0
 40
15016.82090780463
100
AcDbArc
 50
175.10713
 51
175.153082
  0
ARC
  5
C5
330
1F
100
AcDbEntity
  8
109
  6
CONTINUOUS
 62
     7
100
AcDbCircle
 10
13347.987619
 20
-1128.969274
 30
0.0
 40
13409.21871664261
100
AcDbArc
 50
176.16879
 51
176.220178
  0
ARC
  5
C6
330
1F
100
AcDbEntity
  8
109
  6
CONTINUOUS
 62
     7
100
AcDbCircle
 10
11083.809877
 20
-1121.778839
 30
0.0
 40
11151.02704023115
100
AcDbArc
 50
175.428462
 51
175.490314
  0
LINE
  5
C7
330
1F
100
AcDbEntity
  8
109
  6
CONTINUOUS
 62
     7
100
AcDbLine
 10
14.000004
 20
-233.0
 30
0.0
 11
14.419053
 21
-245.0
 31
0.0
  0
LINE
  5
C8
330
1F
100
AcDbEntity
  8
109
  6
CONTINUOUS
 62
     7
100
AcDbLine
 10
10.000004
 20
-233.0
 30
0.0
 11
9.580955
 21
-245.0
 31
0.0
  0
LINE
  5
C9
330
1F
100
AcDbEntity
  8
109
  6
CONTINUOUS
 62
     7
100
AcDbLine
 10
6.000004
 20
-233.0
 30
0.0
 11
6.419053
 21
-245.0
 31
0.0
  0
LINE
  5
CA
330
1F
100
AcDbEntity
  8
109
  6
CONTINUOUS
 62
     7
100
AcDbLine
 10
2.000004
 20
-233.0
 30
0.0
 11
1.580955
 21
-245.0
 31
0.0
  0
LINE
  5
CB
330
1F
100
AcDbEntity
  8
109
  6
CONTINUOUS
 62
     7
100
AcDbLine
 10
-1.999996
 20
-233.0
 30
0.0
 11
-1.580947
 21
-245.0
 31
0.0
  0
LINE
  5
CC
330
1F
100
AcDbEntity
  8
109
  6
CONTINUOUS
 62
     7
100
AcDbLine
 10
-5.999996
 20
-233.0
 30
0.0
 11
-6.419045
 21
-245.0
 31
0.0
  0
LINE
  5
CD
330
1F
100
AcDbEntity
  8
109
  6
CONTINUOUS
 62
     7
100
AcDbLine
 10
-9.999996
 20
-233.0
 30
0.0
 11
-9.580947
 21
-245.0
 31
0.0
  0
LINE
  5
CE
330
1F
100
AcDbEntity
  8
109
  6
CONTINUOUS
 62
     7
100
AcDbLine
 10
-13.999996
 20
-233.0
 30
0.0
 11
-14.419045
 21
-245.0
 31
0.0
  0
LINE
  5
CF
330
1F
100
AcDbEntity
  8
109
  6
CONTINUOUS
 62
     7
100
AcDbLine
 10
24.731417
 20
-245.0
 30
0.0
 11
24.625004
 21
-233.0
 31
0.0
  0
LINE
  5
D0
330
1F
100
AcDbEntity
  8
109
  6
CONTINUOUS
 62
     7
100
AcDbLine
 10
21.835884
 20
-245.0
 30
0.0
 11
21.188175
 21
-233.0
 31
0.0
  0
LINE
  5
D1
330
1F
100
AcDbEntity
  8
109
  6
CONTINUOUS
 62
     7
100
AcDbLine
 10
17.580955
 20
-245.0
 30
0.0
 11
18.000004
 21
-233.0
 31
0.0
  0
ARC
  5
D2
330
1F
100
AcDbEntity
  8
109
  6
CONTINUOUS
 62
     7
100
AcDbCircle
 10
-11083.809869
 20
-1121.778839
 30
0.0
 40
11151.02704024326
100
AcDbArc
 50
4.509686
 51
4.571538
  0
ARC
  5
D3
330
1F
100
AcDbEntity
  8
109
  6
CONTINUOUS
 62
     7
100
AcDbCircle
 10
-13347.987612
 20
-1128.969274
 30
0.0
 40
13409.2187167142
100
AcDbArc
 50
3.779822
 51
3.83121
  0
ARC
  5
D4
330
1F
100
AcDbEntity
  8
109
  6
CONTINUOUS
 62
     7
100
AcDbCircle
 10
-14932.257524
 20
-1513.828616
 30
0.0
 40
15016.82090789662
100
AcDbArc
 50
4.846918
 51
4.89287
  0
ARC
  5
D5
330
1F
100
AcDbEntity
  8
109
  6
CONTINUOUS
 62
     7
100
AcDbCircle
 10
-16788.803817
 20
-869.207068
 30
0.0
 40
16829.2497283542
100
AcDbArc
 50
2.125623
 51
2.166506
  0
ARC
  5
D6
330
1F
100
AcDbEntity
  8
109
  6
CONTINUOUS
 62
     7
100
AcDbCircle
 10
-20105.796967
 20
-1789.833796
 30
0.0
 40
20192.5616007954
100
AcDbArc
 50
4.387706
 51
4.421857
  0
LINE
  5
D7
330
1F
100
AcDbEntity
  8
109
  6
CONTINUOUS
 62
     7
100
AcDbLine
 10
31.750004
 20
-232.999999
 30
0.0
 11
32.505528
 21
-242.599848
 31
0.0
  0
LINE
  5
D8
330
1F
100
AcDbEntity
  8
109
  6
CONTINUOUS
 62
     7
100
AcDbLine
 10
-32.017451
 20
-249.999999
 30
0.0
 11
-32.104727
 21
-244.999999
 31
0.0
  0
LINE
  5
D9
330
1F
100
AcDbEntity
  8
109
  6
CONTINUOUS
 62
     7
100
AcDbLine
 10
32.017459
 20
-249.999999
 30
0.0
 11
32.104734
 21
-244.999999
 31
0.0
  0
LINE
  5
DA
330
1F
100
AcDbEntity
  8
109
  6
CONTINUOUS
 62
     7
100
AcDbLine
 10
-34.999996
 20
-250.0
 30
0.0
 11
-34.999996
 21
-252.0
 31
0.0
  0
LINE
  5
DB
330
1F
100
AcDbEntity
  8
109
  6
CONTINUOUS
 62
     7
100
AcDbLine
 10
35.000004
 20
-250.0
 30
0.0
 11
35.000004
 21
-252.0
 31
0.0
  0
LINE
  5
DC
330
1F
100
AcDbEntity
  8
109
  6
DASHDOT
 62
     1
100
AcDbLine
 10
231.748521
 20
0.0
 30
0.0
 11
253.748521
 21
0.0
 31
0.0
  0
LINE
  5
DD
330
1F
100
AcDbEntity
  8
109
  6
DASHDOT
 62
     1
100
AcDbLine
 10
0.0
 20
-231.965726
 30
0.0
 11
0.0
 21
-252.965726
 31
0.0
  0
TEXT
  5
DE
330
1F
100
AcDbEntity
  8
0
  6
CONTINUOUS
 62
     2
 60
     1
100
AcDbText
 10
89.757875
 20
290.877762
 30
0.0
 40
3.5
  1
a
  7
FSB
 72
     1
 11
91.115875
 21
294.377762
 31
0.0
100
AcDbText
 73
     3
  0
TEXT
  5
DF
330
1F
100
AcDbEntity
  8
0
  6
CONTINUOUS
 62
     2
 60
     1
100
AcDbText
 10
208.501237
 20
290.877762
 30
0.0
 40
3.5
  1
D-D
  7
FSB
 72
     1
 11
212.842987
 21
294.377762
 31
0.0
100
AcDbText
 73
     3
  0
LINE
  5
E0
330
1F
100
AcDbEntity
  8
0
  6
HIDDEN2
 62
     1
 60
     1
100
AcDbLine
 10
61.275017
 20
356.505291
 30
0.0
 11
60.70777
 21
356.348915
 31
0.0
  0
LINE
  5
E1
330
1F
100
AcDbEntity
  8
0
  6
HIDDEN2
 62
     1
 60
     1
100
AcDbLine
 10
59.851436
 20
353.068462
 30
0.0
 11
59.560906
 21
353.580141
 31
0.0
  0
LINE
  5
E2
330
1F
100
AcDbEntity
  8
0
  6
HIDDEN2
 62
     1
 60
     1
100
AcDbLine
 10
59.374654
 20
349.880291
 30
0.0
 11
58.947053
 21
349.461242
 31
0.0
  0
LINE
  5
E3
330
1F
100
AcDbEntity
  8
0
  6
HIDDEN2
 62
     1
 60
     1
100
AcDbLine
 10
59.011149
 20
349.380291
 30
0.0
 11
58.94683
 21
349.380291
 31
0.0
  0
LINE
  5
E4
330
1F
100
AcDbEntity
  8
0
  6
HIDDEN2
 62
     1
 60
     1
100
AcDbLine
 10
59.365879
 20
349.380291
 30
0.0
 11
59.098424
 21
349.380291
 31
0.0
  0
LINE
  5
E5
330
1F
100
AcDbEntity
  8
0
  6
HIDDEN2
 62
     1
 60
     1
100
AcDbLine
 10
59.365879
 20
345.880291
 30
0.0
 11
58.94683
 21
346.29934
 31
0.0
  0
LINE
  5
E6
330
1F
100
AcDbEntity
  8
0
  6
HIDDEN2
 62
     1
 60
     1
100
AcDbLine
 10
59.365879
 20
341.880291
 30
0.0
 11
58.94683
 21
341.461242
 31
0.0
  0
LINE
  5
E7
330
1F
100
AcDbEntity
  8
0
  6
HIDDEN2
 62
     1
 60
     1
100
AcDbLine
 10
59.365879
 20
337.880291
 30
0.0
 11
58.94683
 21
338.29934
 31
0.0
  0
LINE
  5
E8
330
1F
100
AcDbEntity
  8
0
  6
HIDDEN2
 62
     1
 60
     1
100
AcDbLine
 10
59.365879
 20
333.880291
 30
0.0
 11
58.94683
 21
333.461242
 31
0.0
  0
LINE
  5
E9
330
1F
100
AcDbEntity
  8
0
  6
HIDDEN2
 62
     1
 60
     1
100
AcDbLine
 10
59.365879
 20
329.880291
 30
0.0
 11
58.94683
 21
330.299341
 31
0.0
  0
LINE
  5
EA
330
1F
100
AcDbEntity
  8
0
  6
HIDDEN2
 62
     1
 60
     1
100
AcDbLine
 10
59.365879
 20
325.880291
 30
0.0
 11
58.94683
 21
325.461242
 31
0.0
  0
LINE
  5
EB
330
1F
100
AcDbEntity
  8
0
  6
HIDDEN2
 62
     1
 60
     1
100
AcDbLine
 10
59.365879
 20
321.880291
 30
0.0
 11
58.94683
 21
322.29934
 31
0.0
  0
LINE
  5
EC
330
1F
100
AcDbEntity
  8
0
  6
HIDDEN2
 62
     1
 60
     1
100
AcDbLine
 10
59.365879
 20
317.880291
 30
0.0
 11
58.94683
 21
317.461242
 31
0.0
  0
LINE
  5
ED
330
1F
100
AcDbEntity
  8
0
  6
HIDDEN2
 62
     1
 60
     1
100
AcDbLine
 10
59.011149
 20
314.380291
 30
0.0
 11
58.94683
 21
314.380291
 31
0.0
  0
LINE
  5
EE
330
1F
100
AcDbEntity
  8
0
  6
HIDDEN2
 62
     1
 60
     1
100
AcDbLine
 10
59.365879
 20
314.380291
 30
0.0
 11
59.098424
 21
314.380291
 31
0.0
  0
LINE
  5
EF
330
1F
100
AcDbEntity
  8
0
  6
HIDDEN2
 62
     1
 60
     1
100
AcDbLine
 10
59.374654
 20
313.880291
 30
0.0
 11
58.947053
 21
314.29934
 31
0.0
  0
LINE
  5
F0
330
1F
100
AcDbEntity
  8
0
  6
HIDDEN2
 62
     1
 60
     1
100
AcDbLine
 10
59.851436
 20
310.69212
 30
0.0
 11
59.560906
 21
310.180441
 31
0.0
  0
LINE
  5
F1
330
1F
100
AcDbEntity
  8
0
  6
HIDDEN2
 62
     1
 60
     1
100
AcDbLine
 10
61.275017
 20
307.255291
 30
0.0
 11
60.70777
 21
307.411667
 31
0.0
  0
LINE
  5
F2
330
1F
100
AcDbEntity
  8
0
  6
HIDDEN2
 62
     1
 60
     1
100
AcDbLine
 10
62.699746
 20
305.220568
 30
0.0
 11
62.652681
 21
304.634046
 31
0.0
  0
LINE
  5
F3
330
1F
100
AcDbEntity
  8
0
  6
HIDDEN2
 62
     1
 60
     1
100
AcDbLine
 10
64.456156
 20
303.464158
 30
0.0
 11
63.869634
 21
303.417093
 31
0.0
  0
LINE
  5
F4
330
1F
100
AcDbEntity
  8
0
  6
HIDDEN2
 62
     1
 60
     1
100
AcDbLine
 10
66.490879
 20
302.039429
 30
0.0
 11
66.647255
 21
301.472182
 31
0.0
  0
LINE
  5
F5
330
1F
100
AcDbEntity
  8
0
  6
HIDDEN2
 62
     1
 60
     1
100
AcDbLine
 10
69.927708
 20
300.615848
 30
0.0
 11
69.416029
 21
300.325318
 31
0.0
  0
LINE
  5
F6
330
1F
100
AcDbEntity
  8
0
  6
HIDDEN2
 62
     1
 60
     1
100
AcDbLine
 10
73.115879
 20
300.139066
 30
0.0
 11
73.534928
 21
299.711465
 31
0.0
  0
LINE
  5
F7
330
1F
100
AcDbEntity
  8
0
  6
HIDDEN2
 62
     1
 60
     1
100
AcDbLine
 10
73.615879
 20
299.775561
 30
0.0
 11
73.615879
 21
299.711242
 31
0.0
  0
LINE
  5
F8
330
1F
100
AcDbEntity
  8
0
  6
HIDDEN2
 62
     1
 60
     1
100
AcDbLine
 10
73.615879
 20
300.130291
 30
0.0
 11
73.615879
 21
299.862836
 31
0.0
  0
LINE
  5
F9
330
1F
100
AcDbEntity
  8
0
  6
HIDDEN2
 62
     1
 60
     1
100
AcDbLine
 10
77.115879
 20
300.130291
 30
0.0
 11
76.69683
 21
299.711242
 31
0.0
  0
LINE
  5
FA
330
1F
100
AcDbEntity
  8
0
  6
HIDDEN2
 62
     1
 60
     1
100
AcDbLine
 10
81.115879
 20
300.130291
 30
0.0
 11
81.534928
 21
299.711242
 31
0.0
  0
LINE
  5
FB
330
1F
100
AcDbEntity
  8
0
  6
HIDDEN2
 62
     1
 60
     1
100
AcDbLine
 10
85.115879
 20
300.130291
 30
0.0
 11
84.69683
 21
299.711242
 31
0.0
  0
LINE
  5
FC
330
1F
100
AcDbEntity
  8
0
  6
HIDDEN2
 62
     1
 60
     1
100
AcDbLine
 10
89.115879
 20
300.130291
 30
0.0
 11
89.534928
 21
299.711242
 31
0.0
  0
LINE
  5
FD
330
1F
100
AcDbEntity
  8
0
  6
HIDDEN2
 62
     1
 60
     1
100
AcDbLine
 10
89.115879
 20
363.630291
 30
0.0
 11
89.534928
 21
364.04934
 31
0.0
  0
LINE
  5
FE
330
1F
100
AcDbEntity
  8
0
  6
HIDDEN2
 62
     1
 60
     1
100
AcDbLine
 10
85.115879
 20
363.630291
 30
0.0
 11
84.69683
 21
364.04934
 31
0.0
  0
LINE
  5
FF
330
1F
100
AcDbEntity
  8
0
  6
HIDDEN2
 62
     1
 60
     1
100
AcDbLine
 10
81.115879
 20
363.630291
 30
0.0
 11
81.534928
 21
364.04934
 31
0.0
  0
LINE
  5
100
330
1F
100
AcDbEntity
  8
0
  6
HIDDEN2
 62
     1
 60
     1
100
AcDbLine
 10
77.115879
 20
363.630291
 30
0.0
 11
76.69683
 21
364.04934
 31
0.0
  0
LINE
  5
101
330
1F
100
AcDbEntity
  8
0
  6
HIDDEN2
 62
     1
 60
     1
100
AcDbLine
 10
73.615879
 20
363.985021
 30
0.0
 11
73.615879
 21
364.04934
 31
0.0
  0
LINE
  5
102
330
1F
100
AcDbEntity
  8
0
  6
HIDDEN2
 62
     1
 60
     1
100
AcDbLine
 10
73.615879
 20
363.630291
 30
0.0
 11
73.615879
 21
363.897746
 31
0.0
  0
LINE
  5
103
330
1F
100
AcDbEntity
  8
0
  6
HIDDEN2
 62
     1
 60
     1
100
AcDbLine
 10
73.115879
 20
363.621516
 30
0.0
 11
73.534928
 21
364.049117
 31
0.0
  0
LINE
  5
104
330
1F
100
AcDbEntity
  8
0
  6
HIDDEN2
 62
     1
 60
     1
100
AcDbLine
 10
69.927708
 20
363.144734
 30
0.0
 11
69.416029
 21
363.435264
 31
0.0
  0
LINE
  5
105
330
1F
100
AcDbEntity
  8
0
  6
HIDDEN2
 62
     1
 60
     1
100
AcDbLine
 10
66.490879
 20
361.721153
 30
0.0
 11
66.647255
 21
362.2884
 31
0.0
  0
LINE
  5
106
330
1F
100
AcDbEntity
  8
0
  6
HIDDEN2
 62
     1
 60
     1
100
AcDbLine
 10
64.456156
 20
360.296424
 30
0.0
 11
63.869634
 21
360.343489
 31
0.0
  0
LINE
  5
107
330
1F
100
AcDbEntity
  8
0
  6
HIDDEN2
 62
     1
 60
     1
100
AcDbLine
 10
62.699746
 20
358.540014
 30
0.0
 11
62.652681
 21
359.126536
 31
0.0
  0
ARC
  5
108
330
1F
100
AcDbEntity
  8
0
  6
HIDDEN2
 62
     1
 60
     1
100
AcDbCircle
 10
61.212612
 20
335.880291
 30
0.0
 40
0.5000000000000001
100
AcDbArc
 50
180.00014
 51
270.0
  0
ARC
  5
109
330
1F
100
AcDbEntity
  8
0
  6
HIDDEN2
 62
     1
 60
     1
100
AcDbCircle
 10
73.615879
 20
349.380291
 30
0.0
 40
12.90329999999469
100
AcDbArc
 50
139.299271
 51
180.0
  0
ARC
  5
10A
330
1F
100
AcDbEntity
  8
0
  6
HIDDEN2
 62
     1
 60
     1
100
AcDbCircle
 10
64.212614
 20
357.468583
 30
0.0
 40
0.5000000000000071
100
AcDbArc
 50
0.0
 51
139.299271
  0
ARC
  5
10B
330
1F
100
AcDbEntity
  8
0
  6
HIDDEN2
 62
     1
 60
     1
100
AcDbCircle
 10
64.212614
 20
335.880291
 30
0.0
 40
0.5
100
AcDbArc
 50
270.0
 51
0.0
  0
LINE
  5
10C
330
1F
100
AcDbEntity
  8
0
  6
HIDDEN2
 62
     1
 60
     1
100
AcDbLine
 10
64.212614
 20
335.380291
 30
0.0
 11
61.212612
 21
335.380291
 31
0.0
  0
ARC
  5
10D
330
1F
100
AcDbEntity
  8
0
  6
HIDDEN2
 62
     1
 60
     1
100
AcDbCircle
 10
61.212612
 20
335.880291
 30
0.0
 40
0.2469015585408451
100
AcDbArc
 50
180.00014
 51
270.0
  0
ARC
  5
10E
330
1F
100
AcDbEntity
  8
0
  6
HIDDEN2
 62
     1
 60
     1
100
AcDbCircle
 10
73.615879
 20
349.380291
 30
0.0
 40
12.65020155853553
100
AcDbArc
 50
139.299271
 51
180.0
  0
ARC
  5
10F
330
1F
100
AcDbEntity
  8
0
  6
HIDDEN2
 62
     1
 60
     1
100
AcDbCircle
 10
64.212614
 20
357.468583
 30
0.0
 40
0.2469015585408521
100
AcDbArc
 50
0.0
 51
139.299271
  0
ARC
  5
110
330
1F
100
AcDbEntity
  8
0
  6
HIDDEN2
 62
     1
 60
     1
100
AcDbCircle
 10
64.212614
 20
335.880291
 30
0.0
 40
0.246901558540845
100
AcDbArc
 50
270.0
 51
0.0
  0
LINE
  5
111
330
1F
100
AcDbEntity
  8
0
  6
HIDDEN2
 62
     1
 60
     1
100
AcDbLine
 10
64.212614
 20
335.633389
 30
0.0
 11
61.212612
 21
335.633389
 31
0.0
  0
LINE
  5
112
330
1F
100
AcDbEntity
  8
0
  6
HIDDEN2
 62
     1
 60
     1
100
AcDbLine
 10
61.212612
 20
335.380291
 30
0.0
 11
61.212612
 21
335.633389
 31
0.0
  0
LINE
  5
113
330
1F
100
AcDbEntity
  8
0
  6
HIDDEN2
 62
     1
 60
     1
100
AcDbLine
 10
60.712612
 20
335.88029
 30
0.0
 11
60.96571
 21
335.88029
 31
0.0
  0
LINE
  5
114
330
1F
100
AcDbEntity
  8
0
  6
HIDDEN2
 62
     1
 60
     1
100
AcDbLine
 10
60.712579
 20
349.380291
 30
0.0
 11
60.965678
 21
349.380291
 31
0.0
  0
LINE
  5
115
330
1F
100
AcDbEntity
  8
0
  6
HIDDEN2
 62
     1
 60
     1
100
AcDbLine
 10
63.833551
 20
357.794637
 30
0.0
 11
64.025432
 21
357.629589
 31
0.0
  0
LINE
  5
116
330
1F
100
AcDbEntity
  8
0
  6
HIDDEN2
 62
     1
 60
     1
100
AcDbLine
 10
64.712614
 20
357.468583
 30
0.0
 11
64.459516
 21
357.468583
 31
0.0
  0
LINE
  5
117
330
1F
100
AcDbEntity
  8
0
  6
HIDDEN2
 62
     1
 60
     1
100
AcDbLine
 10
64.712614
 20
335.880291
 30
0.0
 11
64.459516
 21
335.880291
 31
0.0
  0
LINE
  5
118
330
1F
100
AcDbEntity
  8
0
  6
HIDDEN2
 62
     1
 60
     1
100
AcDbLine
 10
64.212614
 20
335.380291
 30
0.0
 11
64.212614
 21
335.633389
 31
0.0
  0
LINE
  5
119
330
1F
100
AcDbEntity
  8
0
  6
HIDDEN2
 62
     1
 60
     1
100
AcDbLine
 10
61.212614
 20
328.380291
 30
0.0
 11
64.21265
 21
328.380291
 31
0.0
  0
ARC
  5
11A
330
1F
100
AcDbEntity
  8
0
  6
HIDDEN2
 62
     1
 60
     1
100
AcDbCircle
 10
64.21265
 20
327.880291
 30
0.0
 40
0.5
100
AcDbArc
 50
0.0
 51
90.0
  0
ARC
  5
11B
330
1F
100
AcDbEntity
  8
0
  6
HIDDEN2
 62
     1
 60
     1
100
AcDbCircle
 10
64.21265
 20
306.291999
 30
0.0
 40
0.5000000000000012
100
AcDbArc
 50
220.700729
 51
0.0
  0
ARC
  5
11C
330
1F
100
AcDbEntity
  8
0
  6
HIDDEN2
 62
     1
 60
     1
100
AcDbCircle
 10
73.615914
 20
314.380291
 30
0.0
 40
12.90329999999469
100
AcDbArc
 50
180.0
 51
220.700729
  0
ARC
  5
11D
330
1F
100
AcDbEntity
  8
0
  6
HIDDEN2
 62
     1
 60
     1
100
AcDbCircle
 10
61.212614
 20
327.880291
 30
0.0
 40
0.5
100
AcDbArc
 50
90.0
 51
180.0
  0
LINE
  5
11E
330
1F
100
AcDbEntity
  8
0
  6
HIDDEN2
 62
     1
 60
     1
100
AcDbLine
 10
61.212614
 20
328.127193
 30
0.0
 11
64.21265
 21
328.127193
 31
0.0
  0
ARC
  5
11F
330
1F
100
AcDbEntity
  8
0
  6
HIDDEN2
 62
     1
 60
     1
100
AcDbCircle
 10
64.21265
 20
327.880291
 30
0.0
 40
0.246901558540845
100
AcDbArc
 50
0.0
 51
90.0
  0
ARC
  5
120
330
1F
100
AcDbEntity
  8
0
  6
HIDDEN2
 62
     1
 60
     1
100
AcDbCircle
 10
64.21265
 20
306.291999
 30
0.0
 40
0.2469015585408462
100
AcDbArc
 50
220.700729
 51
0.0
  0
ARC
  5
121
330
1F
100
AcDbEntity
  8
0
  6
HIDDEN2
 62
     1
 60
     1
100
AcDbCircle
 10
73.615914
 20
314.380291
 30
0.0
 40
12.65020155853554
100
AcDbArc
 50
180.0
 51
220.700729
  0
ARC
  5
122
330
1F
100
AcDbEntity
  8
0
  6
HIDDEN2
 62
     1
 60
     1
100
AcDbCircle
 10
61.212614
 20
327.880291
 30
0.0
 40
0.246901558540845
100
AcDbArc
 50
90.0
 51
180.0
  0
LINE
  5
123
330
1F
100
AcDbEntity
  8
0
  6
HIDDEN2
 62
     1
 60
     1
100
AcDbLine
 10
61.212614
 20
328.380291
 30
0.0
 11
61.212614
 21
328.127193
 31
0.0
  0
LINE
  5
124
330
1F
100
AcDbEntity
  8
0
  6
HIDDEN2
 62
     1
 60
     1
100
AcDbLine
 10
64.21265
 20
328.380291
 30
0.0
 11
64.21265
 21
328.127193
 31
0.0
  0
LINE
  5
125
330
1F
100
AcDbEntity
  8
0
  6
HIDDEN2
 62
     1
 60
     1
100
AcDbLine
 10
64.71265
 20
327.880291
 30
0.0
 11
64.459551
 21
327.880291
 31
0.0
  0
LINE
  5
126
330
1F
100
AcDbEntity
  8
0
  6
HIDDEN2
 62
     1
 60
     1
100
AcDbLine
 10
64.71265
 20
306.291999
 30
0.0
 11
64.459551
 21
306.291999
 31
0.0
  0
LINE
  5
127
330
1F
100
AcDbEntity
  8
0
  6
HIDDEN2
 62
     1
 60
     1
100
AcDbLine
 10
63.833587
 20
305.965945
 30
0.0
 11
64.025467
 21
306.130993
 31
0.0
  0
LINE
  5
128
330
1F
100
AcDbEntity
  8
0
  6
HIDDEN2
 62
     1
 60
     1
100
AcDbLine
 10
60.712614
 20
314.380291
 30
0.0
 11
60.965713
 21
314.380291
 31
0.0
  0
LINE
  5
129
330
1F
100
AcDbEntity
  8
0
  6
HIDDEN2
 62
     1
 60
     1
100
AcDbLine
 10
60.712614
 20
327.880291
 30
0.0
 11
60.965713
 21
327.880291
 31
0.0
  0
LINE
  5
12A
330
1F
100
AcDbEntity
  8
0
  6
HIDDEN2
 62
     1
 60
     1
100
AcDbLine
 10
60.115879
 20
314.380291
 30
0.0
 11
60.115879
 21
349.380291
 31
0.0
  0
LINE
  5
12B
330
1F
100
AcDbEntity
  8
0
  6
HIDDEN2
 62
     1
 60
     1
100
AcDbLine
 10
89.115879
 20
300.130291
 30
0.0
 11
85.115879
 21
300.130291
 31
0.0
  0
LINE
  5
12C
330
1F
100
AcDbEntity
  8
0
  6
HIDDEN2
 62
     1
 60
     1
100
AcDbLine
 10
85.115879
 20
300.130291
 30
0.0
 11
81.115879
 21
300.130291
 31
0.0
  0
LINE
  5
12D
330
1F
100
AcDbEntity
  8
0
  6
HIDDEN2
 62
     1
 60
     1
100
AcDbLine
 10
81.115879
 20
300.130291
 30
0.0
 11
77.115879
 21
300.130291
 31
0.0
  0
LINE
  5
12E
330
1F
100
AcDbEntity
  8
0
  6
HIDDEN2
 62
     1
 60
     1
100
AcDbLine
 10
77.115879
 20
300.130291
 30
0.0
 11
73.615879
 21
300.130291
 31
0.0
  0
ARC
  5
12F
330
1F
100
AcDbEntity
  8
0
  6
HIDDEN2
 62
     1
 60
     1
100
AcDbCircle
 10
73.615879
 20
314.380291
 30
0.0
 40
14.24999998029034
100
AcDbArc
 50
267.989209
 51
270.0
  0
ARC
  5
130
330
1F
100
AcDbEntity
  8
0
  6
HIDDEN2
 62
     1
 60
     1
100
AcDbCircle
 10
73.615879
 20
314.380291
 30
0.0
 40
14.24999998029034
100
AcDbArc
 50
255.0
 51
267.989209
  0
ARC
  5
131
330
1F
100
AcDbEntity
  8
0
  6
HIDDEN2
 62
     1
 60
     1
100
AcDbCircle
 10
73.615879
 20
314.380291
 30
0.0
 40
14.24999998029034
100
AcDbArc
 50
240.0
 51
255.0
  0
ARC
  5
132
330
1F
100
AcDbEntity
  8
0
  6
HIDDEN2
 62
     1
 60
     1
100
AcDbCircle
 10
73.615879
 20
314.380291
 30
0.0
 40
14.24999998029034
100
AcDbArc
 50
230.0
 51
240.0
  0
ARC
  5
133
330
1F
100
AcDbEntity
  8
0
  6
HIDDEN2
 62
     1
 60
     1
100
AcDbCircle
 10
73.615879
 20
314.380291
 30
0.0
 40
14.24999998029034
100
AcDbArc
 50
220.0
 51
230.0
  0
ARC
  5
134
330
1F
100
AcDbEntity
  8
0
  6
HIDDEN2
 62
     1
 60
     1
100
AcDbCircle
 10
73.615879
 20
314.380291
 30
0.0
 40
14.24999998029034
100
AcDbArc
 50
210.0
 51
220.0
  0
ARC
  5
135
330
1F
100
AcDbEntity
  8
0
  6
HIDDEN2
 62
     1
 60
     1
100
AcDbCircle
 10
73.615879
 20
314.380291
 30
0.0
 40
14.24999998029034
100
AcDbArc
 50
195.0
 51
210.0
  0
ARC
  5
136
330
1F
100
AcDbEntity
  8
0
  6
HIDDEN2
 62
     1
 60
     1
100
AcDbCircle
 10
73.615879
 20
314.380291
 30
0.0
 40
14.24999998029034
100
AcDbArc
 50
182.010791
 51
195.0
  0
ARC
  5
137
330
1F
100
AcDbEntity
  8
0
  6
HIDDEN2
 62
     1
 60
     1
100
AcDbCircle
 10
73.615879
 20
314.380291
 30
0.0
 40
14.24999998029034
100
AcDbArc
 50
180.0
 51
182.010791
  0
LINE
  5
138
330
1F
100
AcDbEntity
  8
0
  6
HIDDEN2
 62
     1
 60
     1
100
AcDbLine
 10
59.365879
 20
314.380291
 30
0.0
 11
59.365879
 21
317.880291
 31
0.0
  0
LINE
  5
139
330
1F
100
AcDbEntity
  8
0
  6
HIDDEN2
 62
     1
 60
     1
100
AcDbLine
 10
59.365879
 20
317.880291
 30
0.0
 11
59.365879
 21
321.880291
 31
0.0
  0
LINE
  5
13A
330
1F
100
AcDbEntity
  8
0
  6
HIDDEN2
 62
     1
 60
     1
100
AcDbLine
 10
59.365879
 20
321.880291
 30
0.0
 11
59.365879
 21
325.880291
 31
0.0
  0
LINE
  5
13B
330
1F
100
AcDbEntity
  8
0
  6
HIDDEN2
 62
     1
 60
     1
100
AcDbLine
 10
59.365879
 20
325.880291
 30
0.0
 11
59.365879
 21
329.880291
 31
0.0
  0
LINE
  5
13C
330
1F
100
AcDbEntity
  8
0
  6
HIDDEN2
 62
     1
 60
     1
100
AcDbLine
 10
59.365879
 20
329.880291
 30
0.0
 11
59.365879
 21
333.880291
 31
0.0
  0
LINE
  5
13D
330
1F
100
AcDbEntity
  8
0
  6
HIDDEN2
 62
     1
 60
     1
100
AcDbLine
 10
59.365879
 20
333.880291
 30
0.0
 11
59.365879
 21
337.880291
 31
0.0
  0
LINE
  5
13E
330
1F
100
AcDbEntity
  8
0
  6
HIDDEN2
 62
     1
 60
     1
100
AcDbLine
 10
59.365879
 20
337.880291
 30
0.0
 11
59.365879
 21
341.880291
 31
0.0
  0
LINE
  5
13F
330
1F
100
AcDbEntity
  8
0
  6
HIDDEN2
 62
     1
 60
     1
100
AcDbLine
 10
59.365879
 20
341.880291
 30
0.0
 11
59.365879
 21
345.880291
 31
0.0
  0
LINE
  5
140
330
1F
100
AcDbEntity
  8
0
  6
HIDDEN2
 62
     1
 60
     1
100
AcDbLine
 10
59.365879
 20
345.880291
 30
0.0
 11
59.365879
 21
349.380291
 31
0.0
  0
ARC
  5
141
330
1F
100
AcDbEntity
  8
0
  6
HIDDEN2
 62
     1
 60
     1
100
AcDbCircle
 10
73.615879
 20
349.380291
 30
0.0
 40
14.24999998029034
100
AcDbArc
 50
177.989209
 51
180.0
  0
ARC
  5
142
330
1F
100
AcDbEntity
  8
0
  6
HIDDEN2
 62
     1
 60
     1
100
AcDbCircle
 10
73.615879
 20
349.380291
 30
0.0
 40
14.24999998029034
100
AcDbArc
 50
165.0
 51
177.989209
  0
ARC
  5
143
330
1F
100
AcDbEntity
  8
0
  6
HIDDEN2
 62
     1
 60
     1
100
AcDbCircle
 10
73.615879
 20
349.380291
 30
0.0
 40
14.24999998029034
100
AcDbArc
 50
150.0
 51
165.0
  0
ARC
  5
144
330
1F
100
AcDbEntity
  8
0
  6
HIDDEN2
 62
     1
 60
     1
100
AcDbCircle
 10
73.615879
 20
349.380291
 30
0.0
 40
14.24999998029034
100
AcDbArc
 50
140.0
 51
150.0
  0
ARC
  5
145
330
1F
100
AcDbEntity
  8
0
  6
HIDDEN2
 62
     1
 60
     1
100
AcDbCircle
 10
73.615879
 20
349.380291
 30
0.0
 40
14.24999998029034
100
AcDbArc
 50
130.0
 51
140.0
  0
ARC
  5
146
330
1F
100
AcDbEntity
  8
0
  6
HIDDEN2
 62
     1
 60
     1
100
AcDbCircle
 10
73.615879
 20
349.380291
 30
0.0
 40
14.24999998029034
100
AcDbArc
 50
120.0
 51
130.0
  0
ARC
  5
147
330
1F
100
AcDbEntity
  8
0
  6
HIDDEN2
 62
     1
 60
     1
100
AcDbCircle
 10
73.615879
 20
349.380291
 30
0.0
 40
14.24999998029034
100
AcDbArc
 50
105.0
 51
120.0
  0
ARC
  5
148
330
1F
100
AcDbEntity
  8
0
  6
HIDDEN2
 62
     1
 60
     1
100
AcDbCircle
 10
73.615879
 20
349.380291
 30
0.0
 40
14.24999998029034
100
AcDbArc
 50
92.010791
 51
105.0
  0
ARC
  5
149
330
1F
100
AcDbEntity
  8
0
  6
HIDDEN2
 62
     1
 60
     1
100
AcDbCircle
 10
73.615879
 20
349.380291
 30
0.0
 40
14.24999998029034
100
AcDbArc
 50
90.0
 51
92.010791
  0
LINE
  5
14A
330
1F
100
AcDbEntity
  8
0
  6
HIDDEN2
 62
     1
 60
     1
100
AcDbLine
 10
73.615879
 20
363.630291
 30
0.0
 11
77.115879
 21
363.630291
 31
0.0
  0
LINE
  5
14B
330
1F
100
AcDbEntity
  8
0
  6
HIDDEN2
 62
     1
 60
     1
100
AcDbLine
 10
77.115879
 20
363.630291
 30
0.0
 11
81.115879
 21
363.630291
 31
0.0
  0
LINE
  5
14C
330
1F
100
AcDbEntity
  8
0
  6
HIDDEN2
 62
     1
 60
     1
100
AcDbLine
 10
81.115879
 20
363.630291
 30
0.0
 11
85.115879
 21
363.630291
 31
0.0
  0
LINE
  5
14D
330
1F
100
AcDbEntity
  8
0
  6
HIDDEN2
 62
     1
 60
     1
100
AcDbLine
 10
85.115879
 20
363.630291
 30
0.0
 11
89.115879
 21
363.630291
 31
0.0
  0
LINE
  5
14E
330
1F
100
AcDbEntity
  8
0
  6
HIDDEN2
 62
     1
 60
     1
100
AcDbLine
 10
77.115879
 20
300.130291
 30
0.0
 11
76.69683
 21
299.185871
 31
0.0
  0
LINE
  5
14F
330
1F
100
AcDbEntity
  8
0
  6
HIDDEN2
 62
     1
 60
     1
100
AcDbLine
 10
81.115879
 20
300.130291
 30
0.0
 11
81.534928
 21
299.185871
 31
0.0
  0
LINE
  5
150
330
1F
100
AcDbEntity
  8
0
  6
HIDDEN2
 62
     1
 60
     1
100
AcDbLine
 10
85.115879
 20
300.130291
 30
0.0
 11
84.69683
 21
299.185871
 31
0.0
  0
LINE
  5
151
330
1F
100
AcDbEntity
  8
0
  6
HIDDEN2
 62
     1
 60
     1
100
AcDbLine
 10
89.115879
 20
300.130291
 30
0.0
 11
89.534928
 21
299.185871
 31
0.0
  0
LINE
  5
152
330
1F
100
AcDbEntity
  8
0
  6
HIDDEN2
 62
     1
 60
     1
100
AcDbLine
 10
58.421674
 20
314.29934
 30
0.0
 11
59.374654
 21
313.880291
 31
0.0
  0
LINE
  5
153
330
1F
100
AcDbEntity
  8
0
  6
HIDDEN2
 62
     1
 60
     1
100
AcDbLine
 10
59.053237
 20
310.044411
 30
0.0
 11
59.851436
 21
310.69212
 31
0.0
  0
LINE
  5
154
330
1F
100
AcDbEntity
  8
0
  6
HIDDEN2
 62
     1
 60
     1
100
AcDbLine
 10
60.252606
 20
307.148878
 30
0.0
 11
61.275017
 21
307.255291
 31
0.0
  0
LINE
  5
155
330
1F
100
AcDbEntity
  8
0
  6
HIDDEN2
 62
     1
 60
     1
100
AcDbLine
 10
62.250065
 20
304.29621
 30
0.0
 11
62.699746
 21
305.220568
 31
0.0
  0
LINE
  5
156
330
1F
100
AcDbEntity
  8
0
  6
HIDDEN2
 62
     1
 60
     1
100
AcDbLine
 10
63.531799
 20
303.014477
 30
0.0
 11
64.456156
 21
303.464158
 31
0.0
  0
LINE
  5
157
330
1F
100
AcDbEntity
  8
0
  6
HIDDEN2
 62
     1
 60
     1
100
AcDbLine
 10
66.384466
 20
301.017018
 30
0.0
 11
66.490879
 21
302.039429
 31
0.0
  0
LINE
  5
158
330
1F
100
AcDbEntity
  8
0
  6
HIDDEN2
 62
     1
 60
     1
100
AcDbLine
 10
69.279999
 20
299.817648
 30
0.0
 11
69.927708
 21
300.615848
 31
0.0
  0
LINE
  5
159
330
1F
100
AcDbEntity
  8
0
  6
HIDDEN2
 62
     1
 60
     1
100
AcDbLine
 10
73.534928
 20
299.186086
 30
0.0
 11
73.115879
 21
300.139066
 31
0.0
  0
LINE
  5
15A
330
1F
100
AcDbEntity
  8
0
  6
HIDDEN2
 62
     1
 60
     1
100
AcDbLine
 10
59.365879
 20
345.880291
 30
0.0
 11
58.421459
 21
346.29934
 31
0.0
  0
LINE
  5
15B
330
1F
100
AcDbEntity
  8
0
  6
HIDDEN2
 62
     1
 60
     1
100
AcDbLine
 10
59.365879
 20
341.880291
 30
0.0
 11
58.421459
 21
341.461242
 31
0.0
  0
LINE
  5
15C
330
1F
100
AcDbEntity
  8
0
  6
HIDDEN2
 62
     1
 60
     1
100
AcDbLine
 10
59.365879
 20
337.880291
 30
0.0
 11
58.421459
 21
338.29934
 31
0.0
  0
LINE
  5
15D
330
1F
100
AcDbEntity
  8
0
  6
HIDDEN2
 62
     1
 60
     1
100
AcDbLine
 10
59.365879
 20
333.880291
 30
0.0
 11
58.421459
 21
333.461242
 31
0.0
  0
LINE
  5
15E
330
1F
100
AcDbEntity
  8
0
  6
HIDDEN2
 62
     1
 60
     1
100
AcDbLine
 10
59.365879
 20
329.880291
 30
0.0
 11
58.421459
 21
330.29934
 31
0.0
  0
LINE
  5
15F
330
1F
100
AcDbEntity
  8
0
  6
HIDDEN2
 62
     1
 60
     1
100
AcDbLine
 10
59.365879
 20
325.880291
 30
0.0
 11
58.421459
 21
325.461242
 31
0.0
  0
LINE
  5
160
330
1F
100
AcDbEntity
  8
0
  6
HIDDEN2
 62
     1
 60
     1
100
AcDbLine
 10
59.365879
 20
321.880291
 30
0.0
 11
58.421459
 21
322.29934
 31
0.0
  0
LINE
  5
161
330
1F
100
AcDbEntity
  8
0
  6
HIDDEN2
 62
     1
 60
     1
100
AcDbLine
 10
59.365879
 20
317.880291
 30
0.0
 11
58.421459
 21
317.461242
 31
0.0
  0
LINE
  5
162
330
1F
100
AcDbEntity
  8
0
  6
HIDDEN2
 62
     1
 60
     1
100
AcDbLine
 10
60.252606
 20
356.611704
 30
0.0
 11
61.275017
 21
356.505291
 31
0.0
  0
LINE
  5
163
330
1F
100
AcDbEntity
  8
0
  6
HIDDEN2
 62
     1
 60
     1
100
AcDbLine
 10
59.053237
 20
353.716171
 30
0.0
 11
59.851436
 21
353.068462
 31
0.0
  0
LINE
  5
164
330
1F
100
AcDbEntity
  8
0
  6
HIDDEN2
 62
     1
 60
     1
100
AcDbLine
 10
58.421674
 20
349.461242
 30
0.0
 11
59.374654
 21
349.880291
 31
0.0
  0
LINE
  5
165
330
1F
100
AcDbEntity
  8
0
  6
HIDDEN2
 62
     1
 60
     1
100
AcDbLine
 10
73.534928
 20
364.574496
 30
0.0
 11
73.115879
 21
363.621516
 31
0.0
  0
LINE
  5
166
330
1F
100
AcDbEntity
  8
0
  6
HIDDEN2
 62
     1
 60
     1
100
AcDbLine
 10
69.279999
 20
363.942934
 30
0.0
 11
69.927708
 21
363.144734
 31
0.0
  0
LINE
  5
167
330
1F
100
AcDbEntity
  8
0
  6
HIDDEN2
 62
     1
 60
     1
100
AcDbLine
 10
66.384466
 20
362.743564
 30
0.0
 11
66.490879
 21
361.721153
 31
0.0
  0
LINE
  5
168
330
1F
100
AcDbEntity
  8
0
  6
HIDDEN2
 62
     1
 60
     1
100
AcDbLine
 10
63.531799
 20
360.746105
 30
0.0
 11
64.456156
 21
360.296424
 31
0.0
  0
LINE
  5
169
330
1F
100
AcDbEntity
  8
0
  6
HIDDEN2
 62
     1
 60
     1
100
AcDbLine
 10
62.250065
 20
359.464371
 30
0.0
 11
62.699746
 21
358.540014
 31
0.0
  0
LINE
  5
16A
330
1F
100
AcDbEntity
  8
0
  6
HIDDEN2
 62
     1
 60
     1
100
AcDbLine
 10
89.115879
 20
363.630291
 30
0.0
 11
89.534928
 21
364.574711
 31
0.0
  0
LINE
  5
16B
330
1F
100
AcDbEntity
  8
0
  6
HIDDEN2
 62
     1
 60
     1
100
AcDbLine
 10
85.115879
 20
363.630291
 30
0.0
 11
84.69683
 21
364.574711
 31
0.0
  0
LINE
  5
16C
330
1F
100
AcDbEntity
  8
0
  6
HIDDEN2
 62
     1
 60
     1
100
AcDbLine
 10
81.115879
 20
363.630291
 30
0.0
 11
81.534928
 21
364.574711
 31
0.0
  0
LINE
  5
16D
330
1F
100
AcDbEntity
  8
0
  6
HIDDEN2
 62
     1
 60
     1
100
AcDbLine
 10
77.115879
 20
363.630291
 30
0.0
 11
76.69683
 21
364.574711
 31
0.0
  0
LINE
  5
16E
330
1F
100
AcDbEntity
  8
0
  6
HIDDEN2
 62
     1
 60
     1
100
AcDbLine
 10
66.212615
 20
358.880279
 30
0.0
 11
66.212615
 21
359.94849
 31
0.0
  0
LINE
  5
16F
330
1F
100
AcDbEntity
  8
0
  6
HIDDEN2
 62
     1
 60
     1
100
AcDbLine
 10
66.212615
 20
359.94849
 30
0.0
 11
66.280915
 21
359.912721
 31
0.0
  0
ARC
  5
170
330
1F
100
AcDbEntity
  8
0
  6
HIDDEN2
 62
     1
 60
     1
100
AcDbCircle
 10
122.368425
 20
355.683859
 30
0.0
 40
56.24670681229041
100
AcDbArc
 50
175.688196
 51
176.742208
  0
SPLINE
  5
171
330
1F
100
AcDbEntity
  8
0
  6
HIDDEN2
 62
     1
 60
     1
100
AcDbSpline
210
0.0
220
0.0
230
1.0
 70
     8
 71
     3
 72
    11
 73
     7
 74
     0
 42
0.0
 43
0.0
 40
0.0
 40
0.0
 40
0.0
 40
0.0
 40
3.230422161557611
 40
5.781658207972416
 40
8.462613740673078
 40
11.17124356757623
 40
11.17124356757623
 40
11.17124356757623
 40
11.17124356757623
 10
66.2809147574445
 20
359.9127205385954
 30
0.0
 10
66.63506649921139
 20
360.1382595850984
 30
0.0
 10
67.26855337587637
 20
360.4962386101065
 30
0.0
 10
68.15340078566899
 20
360.9006134679662
 30
0.0
 10
68.90469928526255
 20
361.1776019168929
 30
0.0
 10
69.30770152079752
 20
361.2918300653499
 30
0.0
 10
69.46329221099032
 20
361.3295010821198
 30
0.0
  0
LINE
  5
172
330
1F
100
AcDbEntity
  8
0
  6
HIDDEN2
 62
     1
 60
     1
100
AcDbLine
 10
66.212615
 20
303.812092
 30
0.0
 11
66.212615
 21
304.880291
 31
0.0
  0
LINE
  5
173
330
1F
100
AcDbEntity
  8
0
  6
HIDDEN2
 62
     1
 60
     1
100
AcDbLine
 10
66.212615
 20
303.812092
 30
0.0
 11
66.280914
 21
303.847861
 31
0.0
  0
SPLINE
  5
174
330
1F
100
AcDbEntity
  8
0
  6
HIDDEN2
 62
     1
 60
     1
100
AcDbSpline
210
0.0
220
0.0
230
1.0
 70
     8
 71
     3
 72
    11
 73
     7
 74
     0
 42
0.0
 43
0.0
 40
0.0
 40
0.0
 40
0.0
 40
0.0
 40
2.61457304227562
 40
4.954723543952588
 40
8.022090547355406
 40
11.17131499897714
 40
11.17131499897714
 40
11.17131499897714
 40
11.17131499897714
 10
69.46332812195888
 20
302.431068408374
 30
0.0
 10
69.31313627152974
 20
302.4674319378224
 30
0.0
 10
68.94564897646916
 20
302.571189297911
 30
0.0
 10
68.20051257308194
 20
302.8403282919576
 30
0.0
 10
67.30712923627152
 20
303.241858594673
 30
0.0
 10
66.62616700026257
 20
303.6279888037183
 30
0.0
 10
66.28091383685424
 20
303.8478609494881
 30
0.0
  0
ARC
  5
175
330
1F
100
AcDbEntity
  8
0
  6
HIDDEN2
 62
     1
 60
     1
100
AcDbCircle
 10
122.368723
 20
308.07673
 30
0.0
 40
56.24700617616931
100
AcDbArc
 50
183.257794
 51
184.311788
  0
ARC
  5
176
330
1F
100
AcDbEntity
  8
0
  6
HIDDEN2
 62
     1
 60
     1
100
AcDbCircle
 10
73.615879
 20
349.380291
 30
0.0
 40
12.9032999999947
100
AcDbArc
 50
101.171646
 51
125.012117
  0
LINE
  5
177
330
1F
100
AcDbEntity
  8
0
  6
HIDDEN2
 62
     1
 60
     1
100
AcDbLine
 10
76.115879
 20
362.283585
 30
0.0
 11
76.115879
 21
358.283555
 31
0.0
  0
LINE
  5
178
330
1F
100
AcDbEntity
  8
0
  6
HIDDEN2
 62
     1
 60
     1
100
AcDbLine
 10
66.212615
 20
358.880279
 30
0.0
 11
71.115879
 21
358.880279
 31
0.0
  0
ARC
  5
179
330
1F
100
AcDbEntity
  8
0
  6
HIDDEN2
 62
     1
 60
     1
100
AcDbCircle
 10
73.615879
 20
349.380291
 30
0.0
 40
12.65020155853555
100
AcDbArc
 50
101.398128
 51
109.16335
  0
LINE
  5
17A
330
1F
100
AcDbEntity
  8
0
  6
HIDDEN2
 62
     1
 60
     1
100
AcDbLine
 10
69.463292
 20
361.329501
 30
0.0
 11
71.115879
 21
361.329501
 31
0.0
  0
LINE
  5
17B
330
1F
100
AcDbEntity
  8
0
  6
HIDDEN2
 62
     1
 60
     1
100
AcDbLine
 10
71.115879
 20
361.781001
 30
0.0
 11
71.115879
 21
362.039088
 31
0.0
  0
LINE
  5
17C
330
1F
100
AcDbEntity
  8
0
  6
HIDDEN2
 62
     1
 60
     1
100
AcDbLine
 10
71.115879
 20
361.781001
 30
0.0
 11
71.115879
 21
361.329501
 31
0.0
  0
LINE
  5
17D
330
1F
100
AcDbEntity
  8
0
  6
HIDDEN2
 62
     1
 60
     1
100
AcDbLine
 10
71.115879
 20
358.880279
 30
0.0
 11
71.115879
 21
361.329501
 31
0.0
  0
ARC
  5
17E
330
1F
100
AcDbEntity
  8
0
  6
HIDDEN2
 62
     1
 60
     1
100
AcDbCircle
 10
73.615879
 20
349.380291
 30
0.0
 40
13.49999999999469
100
AcDbArc
 50
90.0
 51
180.0
  0
ARC
  5
17F
330
1F
100
AcDbEntity
  8
0
  6
HIDDEN2
 62
     1
 60
     1
100
AcDbCircle
 10
73.615879
 20
314.380291
 30
0.0
 40
12.90329999999468
100
AcDbArc
 50
234.987883
 51
258.828354
  0
LINE
  5
180
330
1F
100
AcDbEntity
  8
0
  6
HIDDEN2
 62
     1
 60
     1
100
AcDbLine
 10
76.115879
 20
305.477027
 30
0.0
 11
76.115879
 21
301.476997
 31
0.0
  0
LINE
  5
181
330
1F
100
AcDbEntity
  8
0
  6
HIDDEN2
 62
     1
 60
     1
100
AcDbLine
 10
66.212615
 20
304.880291
 30
0.0
 11
71.115879
 21
304.880291
 31
0.0
  0
ARC
  5
182
330
1F
100
AcDbEntity
  8
0
  6
HIDDEN2
 62
     1
 60
     1
100
AcDbCircle
 10
73.615879
 20
314.380291
 30
0.0
 40
12.65020155853553
100
AcDbArc
 50
250.836822
 51
258.601872
  0
LINE
  5
183
330
1F
100
AcDbEntity
  8
0
  6
HIDDEN2
 62
     1
 60
     1
100
AcDbLine
 10
69.463328
 20
302.431068
 30
0.0
 11
71.115879
 21
302.431068
 31
0.0
  0
LINE
  5
184
330
1F
100
AcDbEntity
  8
0
  6
HIDDEN2
 62
     1
 60
     1
100
AcDbLine
 10
71.115879
 20
301.979581
 30
0.0
 11
71.115879
 21
301.721494
 31
0.0
  0
LINE
  5
185
330
1F
100
AcDbEntity
  8
0
  6
HIDDEN2
 62
     1
 60
     1
100
AcDbLine
 10
71.115879
 20
301.979581
 30
0.0
 11
71.115879
 21
302.431068
 31
0.0
  0
LINE
  5
186
330
1F
100
AcDbEntity
  8
0
  6
HIDDEN2
 62
     1
 60
     1
100
AcDbLine
 10
71.115879
 20
302.431068
 30
0.0
 11
71.115879
 21
304.880291
 31
0.0
  0
ARC
  5
187
330
1F
100
AcDbEntity
  8
0
  6
HIDDEN2
 62
     1
 60
     1
100
AcDbCircle
 10
73.615879
 20
314.380291
 30
0.0
 40
13.49999999999469
100
AcDbArc
 50
180.0
 51
270.0
  0
LINE
  5
188
330
1F
100
AcDbEntity
  8
0
  6
CONTINUOUS
 62
     1
 60
     1
100
AcDbLine
 10
73.615879
 20
299.862836
 30
0.0
 11
73.615879
 21
299.775561
 31
0.0
  0
LINE
  5
189
330
1F
100
AcDbEntity
  8
0
  6
CONTINUOUS
 62
     1
 60
     1
100
AcDbLine
 10
59.098424
 20
314.380291
 30
0.0
 11
59.011149
 21
314.380291
 31
0.0
  0
LINE
  5
18A
330
1F
100
AcDbEntity
  8
0
  6
CONTINUOUS
 62
     1
 60
     1
100
AcDbLine
 10
59.098424
 20
349.380291
 30
0.0
 11
59.011149
 21
349.380291
 31
0.0
  0
LINE
  5
18B
330
1F
100
AcDbEntity
  8
0
  6
CONTINUOUS
 62
     1
 60
     1
100
AcDbLine
 10
73.615879
 20
363.897746
 30
0.0
 11
73.615879
 21
363.985021
 31
0.0
  0
LINE
  5
18C
330
1F
100
AcDbEntity
  8
0
  6
CONTINUOUS
 62
     1
 60
     1
100
AcDbLine
 10
108.615879
 20
299.862836
 30
0.0
 11
108.615879
 21
299.775561
 31
0.0
  0
LINE
  5
18D
330
1F
100
AcDbEntity
  8
0
  6
HIDDEN2
 62
     1
 60
     1
100
AcDbLine
 10
93.115879
 20
300.130291
 30
0.0
 11
97.115879
 21
300.130291
 31
0.0
  0
LINE
  5
18E
330
1F
100
AcDbEntity
  8
0
  6
HIDDEN2
 62
     1
 60
     1
100
AcDbLine
 10
97.115879
 20
300.130291
 30
0.0
 11
97.534928
 21
299.185871
 31
0.0
  0
LINE
  5
18F
330
1F
100
AcDbEntity
  8
0
  6
HIDDEN2
 62
     1
 60
     1
100
AcDbLine
 10
93.115879
 20
300.130291
 30
0.0
 11
92.69683
 21
299.185871
 31
0.0
  0
LINE
  5
190
330
1F
100
AcDbEntity
  8
0
  6
HIDDEN2
 62
     1
 60
     1
100
AcDbLine
 10
101.115879
 20
300.130291
 30
0.0
 11
105.115879
 21
300.130291
 31
0.0
  0
LINE
  5
191
330
1F
100
AcDbEntity
  8
0
  6
HIDDEN2
 62
     1
 60
     1
100
AcDbLine
 10
105.115879
 20
300.130291
 30
0.0
 11
105.534928
 21
299.185871
 31
0.0
  0
LINE
  5
192
330
1F
100
AcDbEntity
  8
0
  6
HIDDEN2
 62
     1
 60
     1
100
AcDbLine
 10
101.115879
 20
300.130291
 30
0.0
 11
100.69683
 21
299.185871
 31
0.0
  0
ARC
  5
193
330
1F
100
AcDbEntity
  8
0
  6
HIDDEN2
 62
     1
 60
     1
100
AcDbCircle
 10
108.615879
 20
314.380291
 30
0.0
 40
13.49999999999469
100
AcDbArc
 50
270.0
 51
360.0
  0
LINE
  5
194
330
1F
100
AcDbEntity
  8
0
  6
CONTINUOUS
 62
     1
 60
     1
100
AcDbLine
 10
123.133334
 20
314.380291
 30
0.0
 11
123.220609
 21
314.380291
 31
0.0
  0
LINE
  5
195
330
1F
100
AcDbEntity
  8
0
  6
HIDDEN2
 62
     1
 60
     1
100
AcDbLine
 10
108.69683
 20
299.186086
 30
0.0
 11
109.115879
 21
300.139066
 31
0.0
  0
LINE
  5
196
330
1F
100
AcDbEntity
  8
0
  6
HIDDEN2
 62
     1
 60
     1
100
AcDbLine
 10
112.951759
 20
299.817648
 30
0.0
 11
112.30405
 21
300.615848
 31
0.0
  0
ARC
  5
197
330
1F
100
AcDbEntity
  8
0
  6
HIDDEN2
 62
     1
 60
     1
100
AcDbCircle
 10
108.615879
 20
314.380291
 30
0.0
 40
14.24999998029034
100
AcDbArc
 50
272.010791
 51
285.0
  0
LINE
  5
198
330
1F
100
AcDbEntity
  8
0
  6
HIDDEN2
 62
     1
 60
     1
100
AcDbLine
 10
115.847292
 20
301.017018
 30
0.0
 11
115.740879
 21
302.039429
 31
0.0
  0
LINE
  5
199
330
1F
100
AcDbEntity
  8
0
  6
HIDDEN2
 62
     1
 60
     1
100
AcDbLine
 10
118.69996
 20
303.014477
 30
0.0
 11
117.775602
 21
303.464158
 31
0.0
  0
ARC
  5
19A
330
1F
100
AcDbEntity
  8
0
  6
HIDDEN2
 62
     1
 60
     1
100
AcDbCircle
 10
108.615879
 20
314.380291
 30
0.0
 40
14.24999998029034
100
AcDbArc
 50
300.0
 51
310.0
  0
LINE
  5
19B
330
1F
100
AcDbEntity
  8
0
  6
HIDDEN2
 62
     1
 60
     1
100
AcDbLine
 10
119.981693
 20
304.29621
 30
0.0
 11
119.532012
 21
305.220568
 31
0.0
  0
LINE
  5
19C
330
1F
100
AcDbEntity
  8
0
  6
HIDDEN2
 62
     1
 60
     1
100
AcDbLine
 10
121.979153
 20
307.148878
 30
0.0
 11
120.956741
 21
307.255291
 31
0.0
  0
ARC
  5
19D
330
1F
100
AcDbEntity
  8
0
  6
HIDDEN2
 62
     1
 60
     1
100
AcDbCircle
 10
108.615879
 20
314.380291
 30
0.0
 40
14.24999998029034
100
AcDbArc
 50
320.0
 51
330.0
  0
LINE
  5
19E
330
1F
100
AcDbEntity
  8
0
  6
HIDDEN2
 62
     1
 60
     1
100
AcDbLine
 10
123.178522
 20
310.044411
 30
0.0
 11
122.380322
 21
310.69212
 31
0.0
  0
LINE
  5
19F
330
1F
100
AcDbEntity
  8
0
  6
HIDDEN2
 62
     1
 60
     1
100
AcDbLine
 10
123.810084
 20
314.29934
 30
0.0
 11
122.857104
 21
313.880291
 31
0.0
  0
ARC
  5
1A0
330
1F
100
AcDbEntity
  8
0
  6
HIDDEN2
 62
     1
 60
     1
100
AcDbCircle
 10
108.615879
 20
314.380291
 30
0.0
 40
14.24999998029034
100
AcDbArc
 50
345.0
 51
357.989209
  0
LINE
  5
1A1
330
1F
100
AcDbEntity
  8
0
  6
HIDDEN2
 62
     1
 60
     1
100
AcDbLine
 10
122.115879
 20
314.380291
 30
0.0
 11
122.115879
 21
349.380291
 31
0.0
  0
LINE
  5
1A2
330
1F
100
AcDbEntity
  8
0
  6
CONTINUOUS
 62
     1
 60
     1
100
AcDbLine
 10
123.133334
 20
349.380291
 30
0.0
 11
123.220609
 21
349.380291
 31
0.0
  0
LINE
  5
1A3
330
1F
100
AcDbEntity
  8
0
  6
HIDDEN2
 62
     1
 60
     1
100
AcDbLine
 10
122.865879
 20
317.880291
 30
0.0
 11
122.865879
 21
321.880291
 31
0.0
  0
LINE
  5
1A4
330
1F
100
AcDbEntity
  8
0
  6
HIDDEN2
 62
     1
 60
     1
100
AcDbLine
 10
122.865879
 20
321.880291
 30
0.0
 11
123.8103
 21
322.29934
 31
0.0
  0
LINE
  5
1A5
330
1F
100
AcDbEntity
  8
0
  6
HIDDEN2
 62
     1
 60
     1
100
AcDbLine
 10
122.865879
 20
317.880291
 30
0.0
 11
123.8103
 21
317.461242
 31
0.0
  0
LINE
  5
1A6
330
1F
100
AcDbEntity
  8
0
  6
HIDDEN2
 62
     1
 60
     1
100
AcDbLine
 10
122.865879
 20
325.880291
 30
0.0
 11
122.865879
 21
329.880291
 31
0.0
  0
LINE
  5
1A7
330
1F
100
AcDbEntity
  8
0
  6
HIDDEN2
 62
     1
 60
     1
100
AcDbLine
 10
122.865879
 20
329.880291
 30
0.0
 11
123.8103
 21
330.29934
 31
0.0
  0
LINE
  5
1A8
330
1F
100
AcDbEntity
  8
0
  6
HIDDEN2
 62
     1
 60
     1
100
AcDbLine
 10
122.865879
 20
325.880291
 30
0.0
 11
123.8103
 21
325.461242
 31
0.0
  0
LINE
  5
1A9
330
1F
100
AcDbEntity
  8
0
  6
HIDDEN2
 62
     1
 60
     1
100
AcDbLine
 10
122.865879
 20
333.880291
 30
0.0
 11
122.865879
 21
337.880291
 31
0.0
  0
LINE
  5
1AA
330
1F
100
AcDbEntity
  8
0
  6
HIDDEN2
 62
     1
 60
     1
100
AcDbLine
 10
122.865879
 20
337.880291
 30
0.0
 11
123.8103
 21
338.29934
 31
0.0
  0
LINE
  5
1AB
330
1F
100
AcDbEntity
  8
0
  6
HIDDEN2
 62
     1
 60
     1
100
AcDbLine
 10
122.865879
 20
333.880291
 30
0.0
 11
123.8103
 21
333.461242
 31
0.0
  0
LINE
  5
1AC
330
1F
100
AcDbEntity
  8
0
  6
HIDDEN2
 62
     1
 60
     1
100
AcDbLine
 10
122.865879
 20
341.880291
 30
0.0
 11
122.865879
 21
345.880291
 31
0.0
  0
LINE
  5
1AD
330
1F
100
AcDbEntity
  8
0
  6
HIDDEN2
 62
     1
 60
     1
100
AcDbLine
 10
122.865879
 20
345.880291
 30
0.0
 11
123.8103
 21
346.29934
 31
0.0
  0
LINE
  5
1AE
330
1F
100
AcDbEntity
  8
0
  6
HIDDEN2
 62
     1
 60
     1
100
AcDbLine
 10
122.865879
 20
341.880291
 30
0.0
 11
123.8103
 21
341.461242
 31
0.0
  0
ARC
  5
1AF
330
1F
100
AcDbEntity
  8
0
  6
HIDDEN2
 62
     1
 60
     1
100
AcDbCircle
 10
108.615879
 20
349.380291
 30
0.0
 40
13.49999999999469
100
AcDbArc
 50
360.0
 51
90.0
  0
LINE
  5
1B0
330
1F
100
AcDbEntity
  8
0
  6
CONTINUOUS
 62
     1
 60
     1
100
AcDbLine
 10
108.615879
 20
363.897746
 30
0.0
 11
108.615879
 21
363.985021
 31
0.0
  0
LINE
  5
1B1
330
1F
100
AcDbEntity
  8
0
  6
HIDDEN2
 62
     1
 60
     1
100
AcDbLine
 10
123.810084
 20
349.461242
 30
0.0
 11
122.857104
 21
349.880291
 31
0.0
  0
LINE
  5
1B2
330
1F
100
AcDbEntity
  8
0
  6
HIDDEN2
 62
     1
 60
     1
100
AcDbLine
 10
123.178522
 20
353.716171
 30
0.0
 11
122.380322
 21
353.068462
 31
0.0
  0
ARC
  5
1B3
330
1F
100
AcDbEntity
  8
0
  6
HIDDEN2
 62
     1
 60
     1
100
AcDbCircle
 10
108.615879
 20
349.380291
 30
0.0
 40
14.24999998029034
100
AcDbArc
 50
2.010791
 51
15.0
  0
LINE
  5
1B4
330
1F
100
AcDbEntity
  8
0
  6
HIDDEN2
 62
     1
 60
     1
100
AcDbLine
 10
121.979153
 20
356.611704
 30
0.0
 11
120.956741
 21
356.505291
 31
0.0
  0
LINE
  5
1B5
330
1F
100
AcDbEntity
  8
0
  6
HIDDEN2
 62
     1
 60
     1
100
AcDbLine
 10
119.981693
 20
359.464371
 30
0.0
 11
119.532012
 21
358.540014
 31
0.0
  0
ARC
  5
1B6
330
1F
100
AcDbEntity
  8
0
  6
HIDDEN2
 62
     1
 60
     1
100
AcDbCircle
 10
108.615879
 20
349.380291
 30
0.0
 40
14.24999998029034
100
AcDbArc
 50
30.0
 51
40.0
  0
LINE
  5
1B7
330
1F
100
AcDbEntity
  8
0
  6
HIDDEN2
 62
     1
 60
     1
100
AcDbLine
 10
118.69996
 20
360.746105
 30
0.0
 11
117.775602
 21
360.296424
 31
0.0
  0
LINE
  5
1B8
330
1F
100
AcDbEntity
  8
0
  6
HIDDEN2
 62
     1
 60
     1
100
AcDbLine
 10
115.847292
 20
362.743564
 30
0.0
 11
115.740879
 21
361.721153
 31
0.0
  0
ARC
  5
1B9
330
1F
100
AcDbEntity
  8
0
  6
HIDDEN2
 62
     1
 60
     1
100
AcDbCircle
 10
108.615879
 20
349.380291
 30
0.0
 40
14.24999998029034
100
AcDbArc
 50
50.0
 51
60.0
  0
LINE
  5
1BA
330
1F
100
AcDbEntity
  8
0
  6
HIDDEN2
 62
     1
 60
     1
100
AcDbLine
 10
112.951759
 20
363.942934
 30
0.0
 11
112.30405
 21
363.144734
 31
0.0
  0
LINE
  5
1BB
330
1F
100
AcDbEntity
  8
0
  6
HIDDEN2
 62
     1
 60
     1
100
AcDbLine
 10
108.69683
 20
364.574496
 30
0.0
 11
109.115879
 21
363.621516
 31
0.0
  0
ARC
  5
1BC
330
1F
100
AcDbEntity
  8
0
  6
HIDDEN2
 62
     1
 60
     1
100
AcDbCircle
 10
108.615879
 20
349.380291
 30
0.0
 40
14.24999998029034
100
AcDbArc
 50
75.0
 51
87.989209
  0
LINE
  5
1BD
330
1F
100
AcDbEntity
  8
0
  6
HIDDEN2
 62
     1
 60
     1
100
AcDbLine
 10
105.115879
 20
363.630291
 30
0.0
 11
101.115879
 21
363.630291
 31
0.0
  0
LINE
  5
1BE
330
1F
100
AcDbEntity
  8
0
  6
HIDDEN2
 62
     1
 60
     1
100
AcDbLine
 10
101.115879
 20
363.630291
 30
0.0
 11
100.69683
 21
364.574711
 31
0.0
  0
LINE
  5
1BF
330
1F
100
AcDbEntity
  8
0
  6
HIDDEN2
 62
     1
 60
     1
100
AcDbLine
 10
105.115879
 20
363.630291
 30
0.0
 11
105.534928
 21
364.574711
 31
0.0
  0
LINE
  5
1C0
330
1F
100
AcDbEntity
  8
0
  6
HIDDEN2
 62
     1
 60
     1
100
AcDbLine
 10
97.115879
 20
363.630291
 30
0.0
 11
93.115879
 21
363.630291
 31
0.0
  0
LINE
  5
1C1
330
1F
100
AcDbEntity
  8
0
  6
HIDDEN2
 62
     1
 60
     1
100
AcDbLine
 10
93.115879
 20
363.630291
 30
0.0
 11
92.69683
 21
364.574711
 31
0.0
  0
LINE
  5
1C2
330
1F
100
AcDbEntity
  8
0
  6
HIDDEN2
 62
     1
 60
     1
100
AcDbLine
 10
97.115879
 20
363.630291
 30
0.0
 11
97.534928
 21
364.574711
 31
0.0
  0
LINE
  5
1C3
330
1F
100
AcDbEntity
  8
0
  6
HIDDEN2
 62
     1
 60
     1
100
AcDbLine
 10
120.956741
 20
356.505291
 30
0.0
 11
121.523988
 21
356.348915
 31
0.0
  0
LINE
  5
1C4
330
1F
100
AcDbEntity
  8
0
  6
HIDDEN2
 62
     1
 60
     1
100
AcDbLine
 10
122.380322
 20
353.068462
 30
0.0
 11
122.670852
 21
353.580141
 31
0.0
  0
ARC
  5
1C5
330
1F
100
AcDbEntity
  8
0
  6
HIDDEN2
 62
     1
 60
     1
100
AcDbCircle
 10
108.615879
 20
349.380291
 30
0.0
 40
14.24999998029034
100
AcDbArc
 50
15.0
 51
30.0
  0
LINE
  5
1C6
330
1F
100
AcDbEntity
  8
0
  6
HIDDEN2
 62
     1
 60
     1
100
AcDbLine
 10
122.857104
 20
349.880291
 30
0.0
 11
123.284705
 21
349.461242
 31
0.0
  0
LINE
  5
1C7
330
1F
100
AcDbEntity
  8
0
  6
HIDDEN2
 62
     1
 60
     1
100
AcDbLine
 10
123.220609
 20
349.380291
 30
0.0
 11
123.284928
 21
349.380291
 31
0.0
  0
LINE
  5
1C8
330
1F
100
AcDbEntity
  8
0
  6
HIDDEN2
 62
     1
 60
     1
100
AcDbLine
 10
122.865879
 20
349.380291
 30
0.0
 11
123.133334
 21
349.380291
 31
0.0
  0
ARC
  5
1C9
330
1F
100
AcDbEntity
  8
0
  6
HIDDEN2
 62
     1
 60
     1
100
AcDbCircle
 10
108.615879
 20
349.380291
 30
0.0
 40
14.24999998029034
100
AcDbArc
 50
360.0
 51
2.010791
  0
LINE
  5
1CA
330
1F
100
AcDbEntity
  8
0
  6
HIDDEN2
 62
     1
 60
     1
100
AcDbLine
 10
122.865879
 20
345.880291
 30
0.0
 11
122.865879
 21
349.380291
 31
0.0
  0
LINE
  5
1CB
330
1F
100
AcDbEntity
  8
0
  6
HIDDEN2
 62
     1
 60
     1
100
AcDbLine
 10
122.865879
 20
345.880291
 30
0.0
 11
123.284928
 21
346.29934
 31
0.0
  0
LINE
  5
1CC
330
1F
100
AcDbEntity
  8
0
  6
HIDDEN2
 62
     1
 60
     1
100
AcDbLine
 10
122.865879
 20
341.880291
 30
0.0
 11
123.284928
 21
341.461242
 31
0.0
  0
LINE
  5
1CD
330
1F
100
AcDbEntity
  8
0
  6
HIDDEN2
 62
     1
 60
     1
100
AcDbLine
 10
122.865879
 20
337.880291
 30
0.0
 11
123.284928
 21
338.29934
 31
0.0
  0
LINE
  5
1CE
330
1F
100
AcDbEntity
  8
0
  6
HIDDEN2
 62
     1
 60
     1
100
AcDbLine
 10
122.865879
 20
337.880291
 30
0.0
 11
122.865879
 21
341.880291
 31
0.0
  0
LINE
  5
1CF
330
1F
100
AcDbEntity
  8
0
  6
HIDDEN2
 62
     1
 60
     1
100
AcDbLine
 10
122.865879
 20
333.880291
 30
0.0
 11
123.284928
 21
333.461242
 31
0.0
  0
LINE
  5
1D0
330
1F
100
AcDbEntity
  8
0
  6
HIDDEN2
 62
     1
 60
     1
100
AcDbLine
 10
122.865879
 20
329.880291
 30
0.0
 11
123.284928
 21
330.299341
 31
0.0
  0
LINE
  5
1D1
330
1F
100
AcDbEntity
  8
0
  6
HIDDEN2
 62
     1
 60
     1
100
AcDbLine
 10
122.865879
 20
329.880291
 30
0.0
 11
122.865879
 21
333.880291
 31
0.0
  0
LINE
  5
1D2
330
1F
100
AcDbEntity
  8
0
  6
HIDDEN2
 62
     1
 60
     1
100
AcDbLine
 10
122.865879
 20
325.880291
 30
0.0
 11
123.284928
 21
325.461242
 31
0.0
  0
LINE
  5
1D3
330
1F
100
AcDbEntity
  8
0
  6
HIDDEN2
 62
     1
 60
     1
100
AcDbLine
 10
122.865879
 20
321.880291
 30
0.0
 11
123.284928
 21
322.29934
 31
0.0
  0
LINE
  5
1D4
330
1F
100
AcDbEntity
  8
0
  6
HIDDEN2
 62
     1
 60
     1
100
AcDbLine
 10
122.865879
 20
321.880291
 30
0.0
 11
122.865879
 21
325.880291
 31
0.0
  0
LINE
  5
1D5
330
1F
100
AcDbEntity
  8
0
  6
HIDDEN2
 62
     1
 60
     1
100
AcDbLine
 10
122.865879
 20
317.880291
 30
0.0
 11
123.284928
 21
317.461242
 31
0.0
  0
LINE
  5
1D6
330
1F
100
AcDbEntity
  8
0
  6
HIDDEN2
 62
     1
 60
     1
100
AcDbLine
 10
123.220609
 20
314.380291
 30
0.0
 11
123.284928
 21
314.380291
 31
0.0
  0
LINE
  5
1D7
330
1F
100
AcDbEntity
  8
0
  6
HIDDEN2
 62
     1
 60
     1
100
AcDbLine
 10
122.865879
 20
314.380291
 30
0.0
 11
123.133334
 21
314.380291
 31
0.0
  0
LINE
  5
1D8
330
1F
100
AcDbEntity
  8
0
  6
HIDDEN2
 62
     1
 60
     1
100
AcDbLine
 10
122.865879
 20
314.380291
 30
0.0
 11
122.865879
 21
317.880291
 31
0.0
  0
ARC
  5
1D9
330
1F
100
AcDbEntity
  8
0
  6
HIDDEN2
 62
     1
 60
     1
100
AcDbCircle
 10
108.615879
 20
314.380291
 30
0.0
 40
14.24999998029034
100
AcDbArc
 50
357.989209
 51
360.0
  0
LINE
  5
1DA
330
1F
100
AcDbEntity
  8
0
  6
HIDDEN2
 62
     1
 60
     1
100
AcDbLine
 10
122.857104
 20
313.880291
 30
0.0
 11
123.284705
 21
314.29934
 31
0.0
  0
LINE
  5
1DB
330
1F
100
AcDbEntity
  8
0
  6
HIDDEN2
 62
     1
 60
     1
100
AcDbLine
 10
122.380322
 20
310.69212
 30
0.0
 11
122.670852
 21
310.180441
 31
0.0
  0
LINE
  5
1DC
330
1F
100
AcDbEntity
  8
0
  6
HIDDEN2
 62
     1
 60
     1
100
AcDbLine
 10
120.956741
 20
307.255291
 30
0.0
 11
121.523988
 21
307.411667
 31
0.0
  0
ARC
  5
1DD
330
1F
100
AcDbEntity
  8
0
  6
HIDDEN2
 62
     1
 60
     1
100
AcDbCircle
 10
108.615879
 20
314.380291
 30
0.0
 40
14.24999998029034
100
AcDbArc
 50
330.0
 51
345.0
  0
LINE
  5
1DE
330
1F
100
AcDbEntity
  8
0
  6
HIDDEN2
 62
     1
 60
     1
100
AcDbLine
 10
119.532012
 20
305.220568
 30
0.0
 11
119.579077
 21
304.634046
 31
0.0
  0
LINE
  5
1DF
330
1F
100
AcDbEntity
  8
0
  6
HIDDEN2
 62
     1
 60
     1
100
AcDbLine
 10
117.775602
 20
303.464158
 30
0.0
 11
118.362124
 21
303.417093
 31
0.0
  0
ARC
  5
1E0
330
1F
100
AcDbEntity
  8
0
  6
HIDDEN2
 62
     1
 60
     1
100
AcDbCircle
 10
108.615879
 20
314.380291
 30
0.0
 40
14.24999998029034
100
AcDbArc
 50
310.0
 51
320.0
  0
LINE
  5
1E1
330
1F
100
AcDbEntity
  8
0
  6
HIDDEN2
 62
     1
 60
     1
100
AcDbLine
 10
115.740879
 20
302.039429
 30
0.0
 11
115.584503
 21
301.472182
 31
0.0
  0
LINE
  5
1E2
330
1F
100
AcDbEntity
  8
0
  6
HIDDEN2
 62
     1
 60
     1
100
AcDbLine
 10
112.30405
 20
300.615848
 30
0.0
 11
112.815729
 21
300.325318
 31
0.0
  0
ARC
  5
1E3
330
1F
100
AcDbEntity
  8
0
  6
HIDDEN2
 62
     1
 60
     1
100
AcDbCircle
 10
108.615879
 20
314.380291
 30
0.0
 40
14.24999998029034
100
AcDbArc
 50
285.0
 51
300.0
  0
LINE
  5
1E4
330
1F
100
AcDbEntity
  8
0
  6
HIDDEN2
 62
     1
 60
     1
100
AcDbLine
 10
109.115879
 20
300.139066
 30
0.0
 11
108.69683
 21
299.711465
 31
0.0
  0
LINE
  5
1E5
330
1F
100
AcDbEntity
  8
0
  6
HIDDEN2
 62
     1
 60
     1
100
AcDbLine
 10
108.615879
 20
299.775561
 30
0.0
 11
108.615879
 21
299.711242
 31
0.0
  0
LINE
  5
1E6
330
1F
100
AcDbEntity
  8
0
  6
HIDDEN2
 62
     1
 60
     1
100
AcDbLine
 10
108.615879
 20
300.130291
 30
0.0
 11
108.615879
 21
299.862836
 31
0.0
  0
ARC
  5
1E7
330
1F
100
AcDbEntity
  8
0
  6
HIDDEN2
 62
     1
 60
     1
100
AcDbCircle
 10
108.615879
 20
314.380291
 30
0.0
 40
14.24999998029034
100
AcDbArc
 50
270.0
 51
272.010791
  0
LINE
  5
1E8
330
1F
100
AcDbEntity
  8
0
  6
HIDDEN2
 62
     1
 60
     1
100
AcDbLine
 10
105.115879
 20
300.130291
 30
0.0
 11
108.615879
 21
300.130291
 31
0.0
  0
LINE
  5
1E9
330
1F
100
AcDbEntity
  8
0
  6
HIDDEN2
 62
     1
 60
     1
100
AcDbLine
 10
105.115879
 20
300.130291
 30
0.0
 11
105.534928
 21
299.711242
 31
0.0
  0
LINE
  5
1EA
330
1F
100
AcDbEntity
  8
0
  6
HIDDEN2
 62
     1
 60
     1
100
AcDbLine
 10
101.115879
 20
300.130291
 30
0.0
 11
100.69683
 21
299.711242
 31
0.0
  0
LINE
  5
1EB
330
1F
100
AcDbEntity
  8
0
  6
HIDDEN2
 62
     1
 60
     1
100
AcDbLine
 10
97.115879
 20
300.130291
 30
0.0
 11
97.534928
 21
299.711242
 31
0.0
  0
LINE
  5
1EC
330
1F
100
AcDbEntity
  8
0
  6
HIDDEN2
 62
     1
 60
     1
100
AcDbLine
 10
97.115879
 20
300.130291
 30
0.0
 11
101.115879
 21
300.130291
 31
0.0
  0
LINE
  5
1ED
330
1F
100
AcDbEntity
  8
0
  6
HIDDEN2
 62
     1
 60
     1
100
AcDbLine
 10
93.115879
 20
300.130291
 30
0.0
 11
92.69683
 21
299.711242
 31
0.0
  0
LINE
  5
1EE
330
1F
100
AcDbEntity
  8
0
  6
HIDDEN2
 62
     1
 60
     1
100
AcDbLine
 10
93.115879
 20
363.630291
 30
0.0
 11
92.69683
 21
364.04934
 31
0.0
  0
LINE
  5
1EF
330
1F
100
AcDbEntity
  8
0
  6
HIDDEN2
 62
     1
 60
     1
100
AcDbLine
 10
97.115879
 20
363.630291
 30
0.0
 11
97.534928
 21
364.04934
 31
0.0
  0
LINE
  5
1F0
330
1F
100
AcDbEntity
  8
0
  6
HIDDEN2
 62
     1
 60
     1
100
AcDbLine
 10
101.115879
 20
363.630291
 30
0.0
 11
100.69683
 21
364.04934
 31
0.0
  0
LINE
  5
1F1
330
1F
100
AcDbEntity
  8
0
  6
HIDDEN2
 62
     1
 60
     1
100
AcDbLine
 10
101.115879
 20
363.630291
 30
0.0
 11
97.115879
 21
363.630291
 31
0.0
  0
LINE
  5
1F2
330
1F
100
AcDbEntity
  8
0
  6
HIDDEN2
 62
     1
 60
     1
100
AcDbLine
 10
105.115879
 20
363.630291
 30
0.0
 11
105.534928
 21
364.04934
 31
0.0
  0
LINE
  5
1F3
330
1F
100
AcDbEntity
  8
0
  6
HIDDEN2
 62
     1
 60
     1
100
AcDbLine
 10
108.615879
 20
363.985021
 30
0.0
 11
108.615879
 21
364.04934
 31
0.0
  0
LINE
  5
1F4
330
1F
100
AcDbEntity
  8
0
  6
HIDDEN2
 62
     1
 60
     1
100
AcDbLine
 10
108.615879
 20
363.630291
 30
0.0
 11
108.615879
 21
363.897746
 31
0.0
  0
LINE
  5
1F5
330
1F
100
AcDbEntity
  8
0
  6
HIDDEN2
 62
     1
 60
     1
100
AcDbLine
 10
108.615879
 20
363.630291
 30
0.0
 11
105.115879
 21
363.630291
 31
0.0
  0
ARC
  5
1F6
330
1F
100
AcDbEntity
  8
0
  6
HIDDEN2
 62
     1
 60
     1
100
AcDbCircle
 10
108.615879
 20
349.380291
 30
0.0
 40
14.24999998029034
100
AcDbArc
 50
87.989209
 51
90.0
  0
LINE
  5
1F7
330
1F
100
AcDbEntity
  8
0
  6
HIDDEN2
 62
     1
 60
     1
100
AcDbLine
 10
109.115879
 20
363.621516
 30
0.0
 11
108.69683
 21
364.049117
 31
0.0
  0
LINE
  5
1F8
330
1F
100
AcDbEntity
  8
0
  6
HIDDEN2
 62
     1
 60
     1
100
AcDbLine
 10
112.30405
 20
363.144734
 30
0.0
 11
112.815729
 21
363.435264
 31
0.0
  0
LINE
  5
1F9
330
1F
100
AcDbEntity
  8
0
  6
HIDDEN2
 62
     1
 60
     1
100
AcDbLine
 10
115.740879
 20
361.721153
 30
0.0
 11
115.584503
 21
362.2884
 31
0.0
  0
ARC
  5
1FA
330
1F
100
AcDbEntity
  8
0
  6
HIDDEN2
 62
     1
 60
     1
100
AcDbCircle
 10
108.615879
 20
349.380291
 30
0.0
 40
14.24999998029034
100
AcDbArc
 50
60.0
 51
75.0
  0
LINE
  5
1FB
330
1F
100
AcDbEntity
  8
0
  6
HIDDEN2
 62
     1
 60
     1
100
AcDbLine
 10
117.775602
 20
360.296424
 30
0.0
 11
118.362124
 21
360.343489
 31
0.0
  0
LINE
  5
1FC
330
1F
100
AcDbEntity
  8
0
  6
HIDDEN2
 62
     1
 60
     1
100
AcDbLine
 10
119.532012
 20
358.540014
 30
0.0
 11
119.579077
 21
359.126536
 31
0.0
  0
ARC
  5
1FD
330
1F
100
AcDbEntity
  8
0
  6
HIDDEN2
 62
     1
 60
     1
100
AcDbCircle
 10
108.615879
 20
349.380291
 30
0.0
 40
14.24999998029034
100
AcDbArc
 50
40.0
 51
50.0
  0
LINE
  5
1FE
330
1F
100
AcDbEntity
  8
0
  6
HIDDEN2
 62
     1
 60
     1
100
AcDbLine
 10
116.019143
 20
303.812092
 30
0.0
 11
115.950844
 21
303.847861
 31
0.0
  0
SPLINE
  5
1FF
330
1F
100
AcDbEntity
  8
0
  6
HIDDEN2
 62
     1
 60
     1
100
AcDbSpline
210
0.0
220
0.0
230
1.0
 70
     8
 71
     3
 72
    11
 73
     7
 74
     0
 42
0.0
 43
0.0
 40
0.0
 40
0.0
 40
0.0
 40
0.0
 40
2.61457304227562
 40
4.954723543952588
 40
8.022090547355406
 40
11.17131499897714
 40
11.17131499897714
 40
11.17131499897714
 40
11.17131499897714
 10
112.7684299957169
 20
302.431068408374
 30
0.0
 10
112.9186218461461
 20
302.4674319378224
 30
0.0
 10
113.2861091412067
 20
302.571189297911
 30
0.0
 10
114.0312455445939
 20
302.8403282919576
 30
0.0
 10
114.9246288814043
 20
303.241858594673
 30
0.0
 10
115.6055911174132
 20
303.6279888037183
 30
0.0
 10
115.9508442808216
 20
303.8478609494881
 30
0.0
  0
ARC
  5
200
330
1F
100
AcDbEntity
  8
0
  6
HIDDEN2
 62
     1
 60
     1
100
AcDbCircle
 10
108.615879
 20
314.380291
 30
0.0
 40
12.65020155853553
100
AcDbArc
 50
281.398128
 51
289.163178
  0
LINE
  5
201
330
1F
100
AcDbEntity
  8
0
  6
HIDDEN2
 62
     1
 60
     1
100
AcDbLine
 10
111.115879
 20
301.979581
 30
0.0
 11
111.115879
 21
301.721494
 31
0.0
  0
ARC
  5
202
330
1F
100
AcDbEntity
  8
0
  6
HIDDEN2
 62
     1
 60
     1
100
AcDbCircle
 10
108.615879
 20
314.380291
 30
0.0
 40
12.90329999999468
100
AcDbArc
 50
281.171646
 51
305.012117
  0
LINE
  5
203
330
1F
100
AcDbEntity
  8
0
  6
HIDDEN2
 62
     1
 60
     1
100
AcDbLine
 10
116.019143
 20
303.812092
 30
0.0
 11
116.019143
 21
304.880291
 31
0.0
  0
ARC
  5
204
330
1F
100
AcDbEntity
  8
0
  6
HIDDEN2
 62
     1
 60
     1
100
AcDbCircle
 10
59.863035
 20
308.07673
 30
0.0
 40
56.24700617614335
100
AcDbArc
 50
355.688212
 51
356.742206
  0
LINE
  5
205
330
1F
100
AcDbEntity
  8
0
  6
HIDDEN2
 62
     1
 60
     1
100
AcDbLine
 10
112.76843
 20
302.431068
 30
0.0
 11
111.115879
 21
302.431068
 31
0.0
  0
LINE
  5
206
330
1F
100
AcDbEntity
  8
0
  6
HIDDEN2
 62
     1
 60
     1
100
AcDbLine
 10
111.115879
 20
301.979581
 30
0.0
 11
111.115879
 21
302.431068
 31
0.0
  0
LINE
  5
207
330
1F
100
AcDbEntity
  8
0
  6
HIDDEN2
 62
     1
 60
     1
100
AcDbLine
 10
121.019144
 20
328.380291
 30
0.0
 11
121.019144
 21
328.127193
 31
0.0
  0
LINE
  5
208
330
1F
100
AcDbEntity
  8
0
  6
HIDDEN2
 62
     1
 60
     1
100
AcDbLine
 10
121.019144
 20
328.380291
 30
0.0
 11
118.019108
 21
328.380291
 31
0.0
  0
LINE
  5
209
330
1F
100
AcDbEntity
  8
0
  6
HIDDEN2
 62
     1
 60
     1
100
AcDbLine
 10
118.019108
 20
328.380291
 30
0.0
 11
118.019108
 21
328.127193
 31
0.0
  0
LINE
  5
20A
330
1F
100
AcDbEntity
  8
0
  6
HIDDEN2
 62
     1
 60
     1
100
AcDbLine
 10
121.019144
 20
328.127193
 30
0.0
 11
118.019108
 21
328.127193
 31
0.0
  0
ARC
  5
20B
330
1F
100
AcDbEntity
  8
0
  6
HIDDEN2
 62
     1
 60
     1
100
AcDbCircle
 10
118.019108
 20
327.880291
 30
0.0
 40
0.5
100
AcDbArc
 50
90.0
 51
180.0
  0
LINE
  5
20C
330
1F
100
AcDbEntity
  8
0
  6
HIDDEN2
 62
     1
 60
     1
100
AcDbLine
 10
117.519108
 20
327.880291
 30
0.0
 11
117.772207
 21
327.880291
 31
0.0
  0
ARC
  5
20D
330
1F
100
AcDbEntity
  8
0
  6
HIDDEN2
 62
     1
 60
     1
100
AcDbCircle
 10
118.019108
 20
327.880291
 30
0.0
 40
0.246901558540845
100
AcDbArc
 50
90.0
 51
180.0
  0
LINE
  5
20E
330
1F
100
AcDbEntity
  8
0
  6
HIDDEN2
 62
     1
 60
     1
100
AcDbLine
 10
117.519108
 20
306.291999
 30
0.0
 11
117.772207
 21
306.291999
 31
0.0
  0
ARC
  5
20F
330
1F
100
AcDbEntity
  8
0
  6
HIDDEN2
 62
     1
 60
     1
100
AcDbCircle
 10
118.019108
 20
306.291999
 30
0.0
 40
0.5000000000000012
100
AcDbArc
 50
180.0
 51
319.299271
  0
LINE
  5
210
330
1F
100
AcDbEntity
  8
0
  6
HIDDEN2
 62
     1
 60
     1
100
AcDbLine
 10
118.398171
 20
305.965945
 30
0.0
 11
118.206291
 21
306.130993
 31
0.0
  0
ARC
  5
211
330
1F
100
AcDbEntity
  8
0
  6
HIDDEN2
 62
     1
 60
     1
100
AcDbCircle
 10
118.019108
 20
306.291999
 30
0.0
 40
0.2469015585408462
100
AcDbArc
 50
180.0
 51
319.299271
  0
ARC
  5
212
330
1F
100
AcDbEntity
  8
0
  6
HIDDEN2
 62
     1
 60
     1
100
AcDbCircle
 10
108.615844
 20
314.380291
 30
0.0
 40
12.90329999999469
100
AcDbArc
 50
319.299271
 51
360.0
  0
LINE
  5
213
330
1F
100
AcDbEntity
  8
0
  6
HIDDEN2
 62
     1
 60
     1
100
AcDbLine
 10
121.519144
 20
314.380291
 30
0.0
 11
121.266045
 21
314.380291
 31
0.0
  0
ARC
  5
214
330
1F
100
AcDbEntity
  8
0
  6
HIDDEN2
 62
     1
 60
     1
100
AcDbCircle
 10
108.615844
 20
314.380291
 30
0.0
 40
12.65020155853554
100
AcDbArc
 50
319.299271
 51
360.0
  0
LINE
  5
215
330
1F
100
AcDbEntity
  8
0
  6
HIDDEN2
 62
     1
 60
     1
100
AcDbLine
 10
121.519144
 20
327.880291
 30
0.0
 11
121.266045
 21
327.880291
 31
0.0
  0
ARC
  5
216
330
1F
100
AcDbEntity
  8
0
  6
HIDDEN2
 62
     1
 60
     1
100
AcDbCircle
 10
121.019144
 20
327.880291
 30
0.0
 40
0.246901558540845
100
AcDbArc
 50
0.0
 51
90.0
  0
ARC
  5
217
330
1F
100
AcDbEntity
  8
0
  6
HIDDEN2
 62
     1
 60
     1
100
AcDbCircle
 10
121.019144
 20
327.880291
 30
0.0
 40
0.5
100
AcDbArc
 50
0.0
 51
90.0
  0
LINE
  5
218
330
1F
100
AcDbEntity
  8
0
  6
HIDDEN2
 62
     1
 60
     1
100
AcDbLine
 10
121.019146
 20
335.380291
 30
0.0
 11
121.019146
 21
335.633389
 31
0.0
  0
ARC
  5
219
330
1F
100
AcDbEntity
  8
0
  6
HIDDEN2
 62
     1
 60
     1
100
AcDbCircle
 10
121.019146
 20
335.880291
 30
0.0
 40
0.5000000000000001
100
AcDbArc
 50
270.0
 51
359.99986
  0
LINE
  5
21A
330
1F
100
AcDbEntity
  8
0
  6
HIDDEN2
 62
     1
 60
     1
100
AcDbLine
 10
121.519146
 20
335.88029
 30
0.0
 11
121.266048
 21
335.88029
 31
0.0
  0
ARC
  5
21B
330
1F
100
AcDbEntity
  8
0
  6
HIDDEN2
 62
     1
 60
     1
100
AcDbCircle
 10
121.019146
 20
335.880291
 30
0.0
 40
0.2469015585408451
100
AcDbArc
 50
270.0
 51
359.99986
  0
LINE
  5
21C
330
1F
100
AcDbEntity
  8
0
  6
HIDDEN2
 62
     1
 60
     1
100
AcDbLine
 10
121.519179
 20
349.380291
 30
0.0
 11
121.266081
 21
349.380291
 31
0.0
  0
ARC
  5
21D
330
1F
100
AcDbEntity
  8
0
  6
HIDDEN2
 62
     1
 60
     1
100
AcDbCircle
 10
108.615879
 20
349.380291
 30
0.0
 40
12.90329999999469
100
AcDbArc
 50
360.0
 51
40.700729
  0
LINE
  5
21E
330
1F
100
AcDbEntity
  8
0
  6
HIDDEN2
 62
     1
 60
     1
100
AcDbLine
 10
118.398207
 20
357.794637
 30
0.0
 11
118.206326
 21
357.629589
 31
0.0
  0
ARC
  5
21F
330
1F
100
AcDbEntity
  8
0
  6
HIDDEN2
 62
     1
 60
     1
100
AcDbCircle
 10
108.615879
 20
349.380291
 30
0.0
 40
12.65020155853553
100
AcDbArc
 50
360.0
 51
40.700729
  0
ARC
  5
220
330
1F
100
AcDbEntity
  8
0
  6
HIDDEN2
 62
     1
 60
     1
100
AcDbCircle
 10
118.019144
 20
357.468583
 30
0.0
 40
0.5000000000000071
100
AcDbArc
 50
40.700729
 51
180.0
  0
LINE
  5
221
330
1F
100
AcDbEntity
  8
0
  6
HIDDEN2
 62
     1
 60
     1
100
AcDbLine
 10
117.519144
 20
357.468583
 30
0.0
 11
117.772242
 21
357.468583
 31
0.0
  0
ARC
  5
222
330
1F
100
AcDbEntity
  8
0
  6
HIDDEN2
 62
     1
 60
     1
100
AcDbCircle
 10
118.019144
 20
357.468583
 30
0.0
 40
0.2469015585408521
100
AcDbArc
 50
40.700729
 51
180.0
  0
LINE
  5
223
330
1F
100
AcDbEntity
  8
0
  6
HIDDEN2
 62
     1
 60
     1
100
AcDbLine
 10
117.519144
 20
335.880291
 30
0.0
 11
117.772242
 21
335.880291
 31
0.0
  0
ARC
  5
224
330
1F
100
AcDbEntity
  8
0
  6
HIDDEN2
 62
     1
 60
     1
100
AcDbCircle
 10
118.019144
 20
335.880291
 30
0.0
 40
0.5
100
AcDbArc
 50
180.0
 51
270.0
  0
LINE
  5
225
330
1F
100
AcDbEntity
  8
0
  6
HIDDEN2
 62
     1
 60
     1
100
AcDbLine
 10
118.019144
 20
335.380291
 30
0.0
 11
118.019144
 21
335.633389
 31
0.0
  0
ARC
  5
226
330
1F
100
AcDbEntity
  8
0
  6
HIDDEN2
 62
     1
 60
     1
100
AcDbCircle
 10
118.019144
 20
335.880291
 30
0.0
 40
0.246901558540845
100
AcDbArc
 50
180.0
 51
270.0
  0
LINE
  5
227
330
1F
100
AcDbEntity
  8
0
  6
HIDDEN2
 62
     1
 60
     1
100
AcDbLine
 10
118.019144
 20
335.633389
 30
0.0
 11
121.019146
 21
335.633389
 31
0.0
  0
LINE
  5
228
330
1F
100
AcDbEntity
  8
0
  6
HIDDEN2
 62
     1
 60
     1
100
AcDbLine
 10
118.019144
 20
335.380291
 30
0.0
 11
121.019146
 21
335.380291
 31
0.0
  0
LINE
  5
229
330
1F
100
AcDbEntity
  8
0
  6
HIDDEN2
 62
     1
 60
     1
100
AcDbLine
 10
116.019143
 20
358.880279
 30
0.0
 11
116.019143
 21
359.94849
 31
0.0
  0
LINE
  5
22A
330
1F
100
AcDbEntity
  8
0
  6
HIDDEN2
 62
     1
 60
     1
100
AcDbLine
 10
116.019143
 20
359.94849
 30
0.0
 11
115.950843
 21
359.912721
 31
0.0
  0
ARC
  5
22B
330
1F
100
AcDbEntity
  8
0
  6
HIDDEN2
 62
     1
 60
     1
100
AcDbCircle
 10
59.863334
 20
355.683859
 30
0.0
 40
56.24670681226917
100
AcDbArc
 50
3.257792
 51
4.311804
  0
ARC
  5
22C
330
1F
100
AcDbEntity
  8
0
  6
HIDDEN2
 62
     1
 60
     1
100
AcDbCircle
 10
108.615879
 20
349.380291
 30
0.0
 40
12.9032999999947
100
AcDbArc
 50
54.987883
 51
78.828354
  0
LINE
  5
22D
330
1F
100
AcDbEntity
  8
0
  6
HIDDEN2
 62
     1
 60
     1
100
AcDbLine
 10
111.115879
 20
361.781001
 30
0.0
 11
111.115879
 21
362.039088
 31
0.0
  0
ARC
  5
22E
330
1F
100
AcDbEntity
  8
0
  6
HIDDEN2
 62
     1
 60
     1
100
AcDbCircle
 10
108.615879
 20
349.380291
 30
0.0
 40
12.65020155853555
100
AcDbArc
 50
70.83665
 51
78.601872
  0
SPLINE
  5
22F
330
1F
100
AcDbEntity
  8
0
  6
HIDDEN2
 62
     1
 60
     1
100
AcDbSpline
210
0.0
220
0.0
230
1.0
 70
     8
 71
     3
 72
    11
 73
     7
 74
     0
 42
0.0
 43
0.0
 40
0.0
 40
0.0
 40
0.0
 40
0.0
 40
3.230422161557611
 40
5.781658207972416
 40
8.462613740673078
 40
11.17124356757623
 40
11.17124356757623
 40
11.17124356757623
 40
11.17124356757623
 10
115.9508433602313
 20
359.9127205385954
 30
0.0
 10
115.5966916184644
 20
360.1382595850984
 30
0.0
 10
114.9632047417994
 20
360.4962386101065
 30
0.0
 10
114.0783573320068
 20
360.9006134679662
 30
0.0
 10
113.3270588324133
 20
361.1776019168929
 30
0.0
 10
112.9240565968783
 20
361.2918300653499
 30
0.0
 10
112.7684659066855
 20
361.3295010821198
 30
0.0
  0
LINE
  5
230
330
1F
100
AcDbEntity
  8
0
  6
HIDDEN2
 62
     1
 60
     1
100
AcDbLine
 10
111.115879
 20
361.781001
 30
0.0
 11
111.115879
 21
361.329501
 31
0.0
  0
LINE
  5
231
330
1F
100
AcDbEntity
  8
0
  6
HIDDEN2
 62
     1
 60
     1
100
AcDbLine
 10
112.768466
 20
361.329501
 30
0.0
 11
111.115879
 21
361.329501
 31
0.0
  0
LINE
  5
232
330
1F
100
AcDbEntity
  8
0
  6
HIDDEN2
 62
     1
 60
     1
100
AcDbLine
 10
111.115879
 20
358.880279
 30
0.0
 11
111.115879
 21
361.329501
 31
0.0
  0
LINE
  5
233
330
1F
100
AcDbEntity
  8
0
  6
HIDDEN2
 62
     1
 60
     1
100
AcDbLine
 10
116.019143
 20
358.880279
 30
0.0
 11
111.115879
 21
358.880279
 31
0.0
  0
LINE
  5
234
330
1F
100
AcDbEntity
  8
0
  6
HIDDEN2
 62
     1
 60
     1
100
AcDbLine
 10
116.019143
 20
304.880291
 30
0.0
 11
111.115879
 21
304.880291
 31
0.0
  0
LINE
  5
235
330
1F
100
AcDbEntity
  8
0
  6
HIDDEN2
 62
     1
 60
     1
100
AcDbLine
 10
111.115879
 20
302.431068
 30
0.0
 11
111.115879
 21
304.880291
 31
0.0
  0
LINE
  5
236
330
1F
100
AcDbEntity
  8
0
  6
HIDDEN2
 62
     1
 60
     1
100
AcDbLine
 10
106.115879
 20
362.283585
 30
0.0
 11
106.115879
 21
358.283555
 31
0.0
  0
LINE
  5
237
330
1F
100
AcDbEntity
  8
0
  6
HIDDEN2
 62
     1
 60
     1
100
AcDbLine
 10
106.115879
 20
305.477027
 30
0.0
 11
106.115879
 21
301.476997
 31
0.0
  0
LINE
  5
238
330
1F
100
AcDbEntity
  8
0
  6
HIDDEN2
 62
     1
 60
     1
100
AcDbLine
 10
89.115879
 20
363.630291
 30
0.0
 11
93.115879
 21
363.630291
 31
0.0
  0
LINE
  5
239
330
1F
100
AcDbEntity
  8
0
  6
HIDDEN2
 62
     1
 60
     1
100
AcDbLine
 10
89.115879
 20
300.130291
 30
0.0
 11
93.115879
 21
300.130291
 31
0.0
  0
LINE
  5
23A
330
1F
100
AcDbEntity
  8
0
  6
HIDDEN2
 62
     1
 60
     1
100
AcDbLine
 10
73.615879
 20
362.880291
 30
0.0
 11
108.615879
 21
362.880291
 31
0.0
  0
LINE
  5
23B
330
1F
100
AcDbEntity
  8
0
  6
HIDDEN2
 62
     1
 60
     1
100
AcDbLine
 10
73.615879
 20
300.880291
 30
0.0
 11
108.615879
 21
300.880291
 31
0.0
  0
LINE
  5
23C
330
1F
100
AcDbEntity
  8
0
  6
CONTINUOUS
 62
     1
 60
     1
100
AcDbLine
 10
66.033334
 20
356.462912
 30
0.0
 11
66.312615
 21
356.183631
 31
0.0
  0
LINE
  5
23D
330
1F
100
AcDbEntity
  8
0
  6
CONTINUOUS
 62
     1
 60
     1
100
AcDbLine
 10
66.533258
 20
356.962836
 30
0.0
 11
66.812539
 21
356.683555
 31
0.0
  0
LINE
  5
23E
330
1F
100
AcDbEntity
  8
0
  6
CONTINUOUS
 62
     1
 60
     1
100
AcDbLine
 10
116.198424
 20
356.462912
 30
0.0
 11
115.919143
 21
356.183631
 31
0.0
  0
LINE
  5
23F
330
1F
100
AcDbEntity
  8
0
  6
CONTINUOUS
 62
     1
 60
     1
100
AcDbLine
 10
115.6985
 20
356.962836
 30
0.0
 11
115.419219
 21
356.683555
 31
0.0
  0
LINE
  5
240
330
1F
100
AcDbEntity
  8
0
  6
CONTINUOUS
 62
     1
 60
     1
100
AcDbLine
 10
116.198424
 20
307.29767
 30
0.0
 11
115.919143
 21
307.576951
 31
0.0
  0
LINE
  5
241
330
1F
100
AcDbEntity
  8
0
  6
CONTINUOUS
 62
     1
 60
     1
100
AcDbLine
 10
115.6985
 20
306.797746
 30
0.0
 11
115.419219
 21
307.077027
 31
0.0
  0
LINE
  5
242
330
1F
100
AcDbEntity
  8
0
  6
CONTINUOUS
 62
     1
 60
     1
100
AcDbLine
 10
66.033334
 20
307.29767
 30
0.0
 11
66.312615
 21
307.576951
 31
0.0
  0
LINE
  5
243
330
1F
100
AcDbEntity
  8
0
  6
CONTINUOUS
 62
     1
 60
     1
100
AcDbLine
 10
66.533258
 20
306.797746
 30
0.0
 11
66.812539
 21
307.077027
 31
0.0
  0
LINE
  5
244
330
1F
100
AcDbEntity
  8
0
  6
HIDDEN2
 62
     1
 60
     1
100
AcDbLine
 10
117.519108
 20
327.880291
 30
0.0
 11
117.519108
 21
317.630291
 31
0.0
  0
LINE
  5
245
330
1F
100
AcDbEntity
  8
0
  6
HIDDEN2
 62
     1
 60
     1
100
AcDbLine
 10
117.519108
 20
316.630291
 30
0.0
 11
117.519108
 21
306.291999
 31
0.0
  0
LINE
  5
246
330
1F
100
AcDbEntity
  8
0
  6
HIDDEN2
 62
     1
 60
     1
100
AcDbLine
 10
121.519144
 20
317.630291
 30
0.0
 11
121.519144
 21
327.880291
 31
0.0
  0
LINE
  5
247
330
1F
100
AcDbEntity
  8
0
  6
HIDDEN2
 62
     1
 60
     1
100
AcDbLine
 10
117.519108
 20
317.630291
 30
0.0
 11
121.519144
 21
317.630291
 31
0.0
  0
LINE
  5
248
330
1F
100
AcDbEntity
  8
0
  6
HIDDEN2
 62
     1
 60
     1
100
AcDbLine
 10
121.519144
 20
314.380291
 30
0.0
 11
121.519144
 21
316.630291
 31
0.0
  0
LINE
  5
249
330
1F
100
AcDbEntity
  8
0
  6
HIDDEN2
 62
     1
 60
     1
100
AcDbLine
 10
121.519144
 20
316.630291
 30
0.0
 11
117.519108
 21
316.630291
 31
0.0
  0
LINE
  5
24A
330
1F
100
AcDbEntity
  8
0
  6
HIDDEN2
 62
     1
 60
     1
100
AcDbLine
 10
64.71265
 20
327.880291
 30
0.0
 11
64.71265
 21
317.630291
 31
0.0
  0
LINE
  5
24B
330
1F
100
AcDbEntity
  8
0
  6
HIDDEN2
 62
     1
 60
     1
100
AcDbLine
 10
64.71265
 20
316.630291
 30
0.0
 11
64.71265
 21
306.291999
 31
0.0
  0
LINE
  5
24C
330
1F
100
AcDbEntity
  8
0
  6
HIDDEN2
 62
     1
 60
     1
100
AcDbLine
 10
60.712614
 20
317.630291
 30
0.0
 11
60.712614
 21
327.880291
 31
0.0
  0
LINE
  5
24D
330
1F
100
AcDbEntity
  8
0
  6
HIDDEN2
 62
     1
 60
     1
100
AcDbLine
 10
64.71265
 20
317.630291
 30
0.0
 11
60.712614
 21
317.630291
 31
0.0
  0
LINE
  5
24E
330
1F
100
AcDbEntity
  8
0
  6
HIDDEN2
 62
     1
 60
     1
100
AcDbLine
 10
60.712614
 20
314.380291
 30
0.0
 11
60.712614
 21
316.630291
 31
0.0
  0
LINE
  5
24F
330
1F
100
AcDbEntity
  8
0
  6
HIDDEN2
 62
     1
 60
     1
100
AcDbLine
 10
60.712614
 20
316.630291
 30
0.0
 11
64.71265
 21
316.630291
 31
0.0
  0
LINE
  5
250
330
1F
100
AcDbEntity
  8
0
  6
HIDDEN2
 62
     1
 60
     1
100
AcDbLine
 10
60.712612
 20
335.88029
 30
0.0
 11
60.712587
 21
346.130291
 31
0.0
  0
LINE
  5
251
330
1F
100
AcDbEntity
  8
0
  6
HIDDEN2
 62
     1
 60
     1
100
AcDbLine
 10
60.712585
 20
347.130291
 30
0.0
 11
60.712579
 21
349.380291
 31
0.0
  0
LINE
  5
252
330
1F
100
AcDbEntity
  8
0
  6
HIDDEN2
 62
     1
 60
     1
100
AcDbLine
 10
64.712614
 20
346.130291
 30
0.0
 11
64.712614
 21
335.880291
 31
0.0
  0
LINE
  5
253
330
1F
100
AcDbEntity
  8
0
  6
HIDDEN2
 62
     1
 60
     1
100
AcDbLine
 10
64.712614
 20
346.130291
 30
0.0
 11
60.712587
 21
346.130291
 31
0.0
  0
LINE
  5
254
330
1F
100
AcDbEntity
  8
0
  6
HIDDEN2
 62
     1
 60
     1
100
AcDbLine
 10
64.712614
 20
357.468583
 30
0.0
 11
64.712614
 21
347.130291
 31
0.0
  0
LINE
  5
255
330
1F
100
AcDbEntity
  8
0
  6
HIDDEN2
 62
     1
 60
     1
100
AcDbLine
 10
60.712585
 20
347.130291
 30
0.0
 11
64.712614
 21
347.130291
 31
0.0
  0
LINE
  5
256
330
1F
100
AcDbEntity
  8
0
  6
HIDDEN2
 62
     1
 60
     1
100
AcDbLine
 10
86.615879
 20
362.283585
 30
0.0
 11
86.615879
 21
358.283555
 31
0.0
  0
LINE
  5
257
330
1F
100
AcDbEntity
  8
0
  6
HIDDEN2
 62
     1
 60
     1
100
AcDbLine
 10
76.115879
 20
358.283555
 30
0.0
 11
85.615879
 21
358.283555
 31
0.0
  0
LINE
  5
258
330
1F
100
AcDbEntity
  8
0
  6
HIDDEN2
 62
     1
 60
     1
100
AcDbLine
 10
85.615879
 20
358.283555
 30
0.0
 11
85.615879
 21
362.283585
 31
0.0
  0
LINE
  5
259
330
1F
100
AcDbEntity
  8
0
  6
HIDDEN2
 62
     1
 60
     1
100
AcDbLine
 10
76.115879
 20
362.283585
 30
0.0
 11
85.615879
 21
362.283585
 31
0.0
  0
LINE
  5
25A
330
1F
100
AcDbEntity
  8
0
  6
HIDDEN2
 62
     1
 60
     1
100
AcDbLine
 10
95.615879
 20
301.476997
 30
0.0
 11
95.615879
 21
305.477027
 31
0.0
  0
LINE
  5
25B
330
1F
100
AcDbEntity
  8
0
  6
HIDDEN2
 62
     1
 60
     1
100
AcDbLine
 10
96.615879
 20
301.476997
 30
0.0
 11
106.115879
 21
301.476997
 31
0.0
  0
LINE
  5
25C
330
1F
100
AcDbEntity
  8
0
  6
HIDDEN2
 62
     1
 60
     1
100
AcDbLine
 10
96.615879
 20
305.477027
 30
0.0
 11
96.615879
 21
301.476997
 31
0.0
  0
LINE
  5
25D
330
1F
100
AcDbEntity
  8
0
  6
HIDDEN2
 62
     1
 60
     1
100
AcDbLine
 10
96.615879
 20
305.477027
 30
0.0
 11
106.115879
 21
305.477027
 31
0.0
  0
LINE
  5
25E
330
1F
100
AcDbEntity
  8
0
  6
HIDDEN2
 62
     1
 60
     1
100
AcDbLine
 10
86.615879
 20
301.476997
 30
0.0
 11
95.615879
 21
301.476997
 31
0.0
  0
LINE
  5
25F
330
1F
100
AcDbEntity
  8
0
  6
HIDDEN2
 62
     1
 60
     1
100
AcDbLine
 10
86.615879
 20
301.476997
 30
0.0
 11
86.615879
 21
305.477027
 31
0.0
  0
LINE
  5
260
330
1F
100
AcDbEntity
  8
0
  6
HIDDEN2
 62
     1
 60
     1
100
AcDbLine
 10
86.615879
 20
305.477027
 30
0.0
 11
95.615879
 21
305.477027
 31
0.0
  0
LINE
  5
261
330
1F
100
AcDbEntity
  8
0
  6
HIDDEN2
 62
     1
 60
     1
100
AcDbLine
 10
76.115879
 20
301.476997
 30
0.0
 11
85.615879
 21
301.476997
 31
0.0
  0
LINE
  5
262
330
1F
100
AcDbEntity
  8
0
  6
HIDDEN2
 62
     1
 60
     1
100
AcDbLine
 10
85.615879
 20
305.477027
 30
0.0
 11
85.615879
 21
301.476997
 31
0.0
  0
LINE
  5
263
330
1F
100
AcDbEntity
  8
0
  6
HIDDEN2
 62
     1
 60
     1
100
AcDbLine
 10
76.115879
 20
305.477027
 30
0.0
 11
85.615879
 21
305.477027
 31
0.0
  0
LINE
  5
264
330
1F
100
AcDbEntity
  8
0
  6
HIDDEN2
 62
     1
 60
     1
100
AcDbLine
 10
121.519146
 20
335.88029
 30
0.0
 11
121.519171
 21
346.130291
 31
0.0
  0
LINE
  5
265
330
1F
100
AcDbEntity
  8
0
  6
HIDDEN2
 62
     1
 60
     1
100
AcDbLine
 10
117.519144
 20
346.130291
 30
0.0
 11
121.519171
 21
346.130291
 31
0.0
  0
LINE
  5
266
330
1F
100
AcDbEntity
  8
0
  6
HIDDEN2
 62
     1
 60
     1
100
AcDbLine
 10
117.519144
 20
346.130291
 30
0.0
 11
117.519144
 21
335.880291
 31
0.0
  0
LINE
  5
267
330
1F
100
AcDbEntity
  8
0
  6
HIDDEN2
 62
     1
 60
     1
100
AcDbLine
 10
121.519174
 20
347.130291
 30
0.0
 11
121.519179
 21
349.380291
 31
0.0
  0
LINE
  5
268
330
1F
100
AcDbEntity
  8
0
  6
HIDDEN2
 62
     1
 60
     1
100
AcDbLine
 10
121.519174
 20
347.130291
 30
0.0
 11
117.519144
 21
347.130291
 31
0.0
  0
LINE
  5
269
330
1F
100
AcDbEntity
  8
0
  6
HIDDEN2
 62
     1
 60
     1
100
AcDbLine
 10
117.519144
 20
357.468583
 30
0.0
 11
117.519144
 21
347.130291
 31
0.0
  0
LINE
  5
26A
330
1F
100
AcDbEntity
  8
0
  6
HIDDEN2
 62
     1
 60
     1
100
AcDbLine
 10
86.615879
 20
358.283555
 30
0.0
 11
95.615879
 21
358.283555
 31
0.0
  0
LINE
  5
26B
330
1F
100
AcDbEntity
  8
0
  6
HIDDEN2
 62
     1
 60
     1
100
AcDbLine
 10
95.615879
 20
362.283585
 30
0.0
 11
95.615879
 21
358.283555
 31
0.0
  0
LINE
  5
26C
330
1F
100
AcDbEntity
  8
0
  6
HIDDEN2
 62
     1
 60
     1
100
AcDbLine
 10
86.615879
 20
362.283585
 30
0.0
 11
95.615879
 21
362.283585
 31
0.0
  0
LINE
  5
26D
330
1F
100
AcDbEntity
  8
0
  6
HIDDEN2
 62
     1
 60
     1
100
AcDbLine
 10
96.615879
 20
358.283555
 30
0.0
 11
106.115879
 21
358.283555
 31
0.0
  0
LINE
  5
26E
330
1F
100
AcDbEntity
  8
0
  6
HIDDEN2
 62
     1
 60
     1
100
AcDbLine
 10
96.615879
 20
358.283555
 30
0.0
 11
96.615879
 21
362.283585
 31
0.0
  0
LINE
  5
26F
330
1F
100
AcDbEntity
  8
0
  6
HIDDEN2
 62
     1
 60
     1
100
AcDbLine
 10
96.615879
 20
362.283585
 30
0.0
 11
106.115879
 21
362.283585
 31
0.0
  0
LINE
  5
270
330
1F
100
AcDbEntity
  8
0
  6
HIDDEN2
 62
     1
 60
     1
100
AcDbLine
 10
95.615879
 20
362.283538
 30
0.0
 11
95.362781
 21
362.03044
 31
0.0
  0
LINE
  5
271
330
1F
100
AcDbEntity
  8
0
  6
HIDDEN2
 62
     1
 60
     1
100
AcDbLine
 10
95.362781
 20
358.536653
 30
0.0
 11
95.362781
 21
362.03044
 31
0.0
  0
LINE
  5
272
330
1F
100
AcDbEntity
  8
0
  6
HIDDEN2
 62
     1
 60
     1
100
AcDbLine
 10
95.615879
 20
358.283555
 30
0.0
 11
95.362781
 21
358.536653
 31
0.0
  0
LINE
  5
273
330
1F
100
AcDbEntity
  8
0
  6
HIDDEN2
 62
     1
 60
     1
100
AcDbLine
 10
96.615879
 20
358.283555
 30
0.0
 11
96.868978
 21
358.536653
 31
0.0
  0
LINE
  5
274
330
1F
100
AcDbEntity
  8
0
  6
HIDDEN2
 62
     1
 60
     1
100
AcDbLine
 10
96.868978
 20
358.536653
 30
0.0
 11
96.868978
 21
362.030437
 31
0.0
  0
LINE
  5
275
330
1F
100
AcDbEntity
  8
0
  6
HIDDEN2
 62
     1
 60
     1
100
AcDbLine
 10
96.615879
 20
362.283536
 30
0.0
 11
96.868978
 21
362.030437
 31
0.0
  0
LINE
  5
276
330
1F
100
AcDbEntity
  8
0
  6
HIDDEN2
 62
     1
 60
     1
100
AcDbLine
 10
86.615879
 20
362.28356
 30
0.0
 11
86.868978
 21
362.030461
 31
0.0
  0
LINE
  5
277
330
1F
100
AcDbEntity
  8
0
  6
HIDDEN2
 62
     1
 60
     1
100
AcDbLine
 10
86.868978
 20
358.536653
 30
0.0
 11
86.868978
 21
362.030461
 31
0.0
  0
LINE
  5
278
330
1F
100
AcDbEntity
  8
0
  6
HIDDEN2
 62
     1
 60
     1
100
AcDbLine
 10
86.615879
 20
358.283555
 30
0.0
 11
86.868978
 21
358.536653
 31
0.0
  0
LINE
  5
279
330
1F
100
AcDbEntity
  8
0
  6
HIDDEN2
 62
     1
 60
     1
100
AcDbLine
 10
85.615879
 20
358.283555
 30
0.0
 11
85.362781
 21
358.536653
 31
0.0
  0
LINE
  5
27A
330
1F
100
AcDbEntity
  8
0
  6
HIDDEN2
 62
     1
 60
     1
100
AcDbLine
 10
85.362781
 20
358.536653
 30
0.0
 11
85.362781
 21
362.030464
 31
0.0
  0
LINE
  5
27B
330
1F
100
AcDbEntity
  8
0
  6
HIDDEN2
 62
     1
 60
     1
100
AcDbLine
 10
85.615879
 20
362.283562
 30
0.0
 11
85.362781
 21
362.030464
 31
0.0
  0
LINE
  5
27C
330
1F
100
AcDbEntity
  8
0
  6
HIDDEN2
 62
     1
 60
     1
100
AcDbLine
 10
95.615879
 20
301.477044
 30
0.0
 11
95.362781
 21
301.730142
 31
0.0
  0
LINE
  5
27D
330
1F
100
AcDbEntity
  8
0
  6
HIDDEN2
 62
     1
 60
     1
100
AcDbLine
 10
95.362781
 20
301.730142
 30
0.0
 11
95.362781
 21
305.223929
 31
0.0
  0
LINE
  5
27E
330
1F
100
AcDbEntity
  8
0
  6
HIDDEN2
 62
     1
 60
     1
100
AcDbLine
 10
95.615879
 20
305.477027
 30
0.0
 11
95.362781
 21
305.223929
 31
0.0
  0
LINE
  5
27F
330
1F
100
AcDbEntity
  8
0
  6
HIDDEN2
 62
     1
 60
     1
100
AcDbLine
 10
96.615879
 20
305.477027
 30
0.0
 11
96.868978
 21
305.223929
 31
0.0
  0
LINE
  5
280
330
1F
100
AcDbEntity
  8
0
  6
HIDDEN2
 62
     1
 60
     1
100
AcDbLine
 10
96.868978
 20
301.730145
 30
0.0
 11
96.868978
 21
305.223929
 31
0.0
  0
LINE
  5
281
330
1F
100
AcDbEntity
  8
0
  6
HIDDEN2
 62
     1
 60
     1
100
AcDbLine
 10
96.615879
 20
301.477046
 30
0.0
 11
96.868978
 21
301.730145
 31
0.0
  0
LINE
  5
282
330
1F
100
AcDbEntity
  8
0
  6
HIDDEN2
 62
     1
 60
     1
100
AcDbLine
 10
86.615879
 20
301.477022
 30
0.0
 11
86.868978
 21
301.730121
 31
0.0
  0
LINE
  5
283
330
1F
100
AcDbEntity
  8
0
  6
HIDDEN2
 62
     1
 60
     1
100
AcDbLine
 10
86.868978
 20
301.730121
 30
0.0
 11
86.868978
 21
305.223929
 31
0.0
  0
LINE
  5
284
330
1F
100
AcDbEntity
  8
0
  6
HIDDEN2
 62
     1
 60
     1
100
AcDbLine
 10
86.615879
 20
305.477027
 30
0.0
 11
86.868978
 21
305.223929
 31
0.0
  0
LINE
  5
285
330
1F
100
AcDbEntity
  8
0
  6
HIDDEN2
 62
     1
 60
     1
100
AcDbLine
 10
85.615879
 20
305.477027
 30
0.0
 11
85.362781
 21
305.223929
 31
0.0
  0
LINE
  5
286
330
1F
100
AcDbEntity
  8
0
  6
HIDDEN2
 62
     1
 60
     1
100
AcDbLine
 10
85.362781
 20
301.730118
 30
0.0
 11
85.362781
 21
305.223929
 31
0.0
  0
LINE
  5
287
330
1F
100
AcDbEntity
  8
0
  6
HIDDEN2
 62
     1
 60
     1
100
AcDbLine
 10
85.615879
 20
301.47702
 30
0.0
 11
85.362781
 21
301.730118
 31
0.0
  0
LINE
  5
288
330
1F
100
AcDbEntity
  8
0
  6
HIDDEN2
 62
     1
 60
     1
100
AcDbLine
 10
117.519144
 20
346.130291
 30
0.0
 11
117.772242
 21
345.877193
 31
0.0
  0
LINE
  5
289
330
1F
100
AcDbEntity
  8
0
  6
HIDDEN2
 62
     1
 60
     1
100
AcDbLine
 10
121.266072
 20
345.877193
 30
0.0
 11
117.772242
 21
345.877193
 31
0.0
  0
LINE
  5
28A
330
1F
100
AcDbEntity
  8
0
  6
HIDDEN2
 62
     1
 60
     1
100
AcDbLine
 10
121.519171
 20
346.130291
 30
0.0
 11
121.266072
 21
345.877193
 31
0.0
  0
LINE
  5
28B
330
1F
100
AcDbEntity
  8
0
  6
HIDDEN2
 62
     1
 60
     1
100
AcDbLine
 10
121.519174
 20
347.130291
 30
0.0
 11
121.266076
 21
347.383389
 31
0.0
  0
LINE
  5
28C
330
1F
100
AcDbEntity
  8
0
  6
HIDDEN2
 62
     1
 60
     1
100
AcDbLine
 10
121.266076
 20
347.383389
 30
0.0
 11
117.772242
 21
347.383389
 31
0.0
  0
LINE
  5
28D
330
1F
100
AcDbEntity
  8
0
  6
HIDDEN2
 62
     1
 60
     1
100
AcDbLine
 10
117.519144
 20
347.130291
 30
0.0
 11
117.772242
 21
347.383389
 31
0.0
  0
LINE
  5
28E
330
1F
100
AcDbEntity
  8
0
  6
HIDDEN2
 62
     1
 60
     1
100
AcDbLine
 10
64.71265
 20
317.630291
 30
0.0
 11
64.459551
 21
317.883389
 31
0.0
  0
LINE
  5
28F
330
1F
100
AcDbEntity
  8
0
  6
HIDDEN2
 62
     1
 60
     1
100
AcDbLine
 10
64.459551
 20
327.880291
 30
0.0
 11
64.459551
 21
317.883389
 31
0.0
  0
LINE
  5
290
330
1F
100
AcDbEntity
  8
0
  6
HIDDEN2
 62
     1
 60
     1
100
AcDbLine
 10
64.459551
 20
316.377193
 30
0.0
 11
64.459551
 21
306.291999
 31
0.0
  0
LINE
  5
291
330
1F
100
AcDbEntity
  8
0
  6
HIDDEN2
 62
     1
 60
     1
100
AcDbLine
 10
64.71265
 20
316.630291
 30
0.0
 11
64.459551
 21
316.377193
 31
0.0
  0
LINE
  5
292
330
1F
100
AcDbEntity
  8
0
  6
HIDDEN2
 62
     1
 60
     1
100
AcDbLine
 10
60.712614
 20
316.630291
 30
0.0
 11
60.965713
 21
316.377193
 31
0.0
  0
LINE
  5
293
330
1F
100
AcDbEntity
  8
0
  6
HIDDEN2
 62
     1
 60
     1
100
AcDbLine
 10
60.965713
 20
314.380291
 30
0.0
 11
60.965713
 21
316.377193
 31
0.0
  0
LINE
  5
294
330
1F
100
AcDbEntity
  8
0
  6
HIDDEN2
 62
     1
 60
     1
100
AcDbLine
 10
60.965713
 20
317.883389
 30
0.0
 11
60.965713
 21
327.880291
 31
0.0
  0
LINE
  5
295
330
1F
100
AcDbEntity
  8
0
  6
HIDDEN2
 62
     1
 60
     1
100
AcDbLine
 10
60.712614
 20
317.630291
 30
0.0
 11
60.965713
 21
317.883389
 31
0.0
  0
LINE
  5
296
330
1F
100
AcDbEntity
  8
0
  6
HIDDEN2
 62
     1
 60
     1
100
AcDbLine
 10
64.459551
 20
317.883389
 30
0.0
 11
60.965713
 21
317.883389
 31
0.0
  0
LINE
  5
297
330
1F
100
AcDbEntity
  8
0
  6
HIDDEN2
 62
     1
 60
     1
100
AcDbLine
 10
64.459551
 20
316.377193
 30
0.0
 11
60.965713
 21
316.377193
 31
0.0
  0
LINE
  5
298
330
1F
100
AcDbEntity
  8
0
  6
HIDDEN2
 62
     1
 60
     1
100
AcDbLine
 10
60.712587
 20
346.130291
 30
0.0
 11
60.965686
 21
345.877193
 31
0.0
  0
LINE
  5
299
330
1F
100
AcDbEntity
  8
0
  6
HIDDEN2
 62
     1
 60
     1
100
AcDbLine
 10
60.96571
 20
335.88029
 30
0.0
 11
60.965686
 21
345.877193
 31
0.0
  0
LINE
  5
29A
330
1F
100
AcDbEntity
  8
0
  6
HIDDEN2
 62
     1
 60
     1
100
AcDbLine
 10
60.965682
 20
347.383389
 30
0.0
 11
60.965678
 21
349.380291
 31
0.0
  0
LINE
  5
29B
330
1F
100
AcDbEntity
  8
0
  6
HIDDEN2
 62
     1
 60
     1
100
AcDbLine
 10
60.712585
 20
347.130291
 30
0.0
 11
60.965682
 21
347.383389
 31
0.0
  0
LINE
  5
29C
330
1F
100
AcDbEntity
  8
0
  6
HIDDEN2
 62
     1
 60
     1
100
AcDbLine
 10
64.712614
 20
347.130291
 30
0.0
 11
64.459516
 21
347.383389
 31
0.0
  0
LINE
  5
29D
330
1F
100
AcDbEntity
  8
0
  6
HIDDEN2
 62
     1
 60
     1
100
AcDbLine
 10
64.459516
 20
357.468583
 30
0.0
 11
64.459516
 21
347.383389
 31
0.0
  0
LINE
  5
29E
330
1F
100
AcDbEntity
  8
0
  6
HIDDEN2
 62
     1
 60
     1
100
AcDbLine
 10
64.459516
 20
345.877193
 30
0.0
 11
64.459516
 21
335.880291
 31
0.0
  0
LINE
  5
29F
330
1F
100
AcDbEntity
  8
0
  6
HIDDEN2
 62
     1
 60
     1
100
AcDbLine
 10
64.712614
 20
346.130291
 30
0.0
 11
64.459516
 21
345.877193
 31
0.0
  0
LINE
  5
2A0
330
1F
100
AcDbEntity
  8
0
  6
HIDDEN2
 62
     1
 60
     1
100
AcDbLine
 10
60.965686
 20
345.877193
 30
0.0
 11
64.459516
 21
345.877193
 31
0.0
  0
LINE
  5
2A1
330
1F
100
AcDbEntity
  8
0
  6
HIDDEN2
 62
     1
 60
     1
100
AcDbLine
 10
60.965682
 20
347.383389
 30
0.0
 11
64.459516
 21
347.383389
 31
0.0
  0
LINE
  5
2A2
330
1F
100
AcDbEntity
  8
0
  6
HIDDEN2
 62
     1
 60
     1
100
AcDbLine
 10
76.115879
 20
358.283555
 30
0.0
 11
76.368978
 21
358.536653
 31
0.0
  0
LINE
  5
2A3
330
1F
100
AcDbEntity
  8
0
  6
HIDDEN2
 62
     1
 60
     1
100
AcDbLine
 10
76.368978
 20
358.536653
 30
0.0
 11
76.368978
 21
362.030486
 31
0.0
  0
LINE
  5
2A4
330
1F
100
AcDbEntity
  8
0
  6
HIDDEN2
 62
     1
 60
     1
100
AcDbLine
 10
76.115879
 20
362.283585
 30
0.0
 11
76.368978
 21
362.030486
 31
0.0
  0
LINE
  5
2A5
330
1F
100
AcDbEntity
  8
0
  6
HIDDEN2
 62
     1
 60
     1
100
AcDbLine
 10
76.115879
 20
301.476997
 30
0.0
 11
76.368978
 21
301.730096
 31
0.0
  0
LINE
  5
2A6
330
1F
100
AcDbEntity
  8
0
  6
HIDDEN2
 62
     1
 60
     1
100
AcDbLine
 10
76.368978
 20
301.730096
 30
0.0
 11
76.368978
 21
305.223929
 31
0.0
  0
LINE
  5
2A7
330
1F
100
AcDbEntity
  8
0
  6
HIDDEN2
 62
     1
 60
     1
100
AcDbLine
 10
76.115879
 20
305.477027
 30
0.0
 11
76.368978
 21
305.223929
 31
0.0
  0
LINE
  5
2A8
330
1F
100
AcDbEntity
  8
0
  6
HIDDEN2
 62
     1
 60
     1
100
AcDbLine
 10
117.519108
 20
317.630291
 30
0.0
 11
117.772207
 21
317.883389
 31
0.0
  0
LINE
  5
2A9
330
1F
100
AcDbEntity
  8
0
  6
HIDDEN2
 62
     1
 60
     1
100
AcDbLine
 10
117.772207
 20
327.880291
 30
0.0
 11
117.772207
 21
317.883389
 31
0.0
  0
LINE
  5
2AA
330
1F
100
AcDbEntity
  8
0
  6
HIDDEN2
 62
     1
 60
     1
100
AcDbLine
 10
117.772207
 20
316.377193
 30
0.0
 11
117.772207
 21
306.291999
 31
0.0
  0
LINE
  5
2AB
330
1F
100
AcDbEntity
  8
0
  6
HIDDEN2
 62
     1
 60
     1
100
AcDbLine
 10
117.519108
 20
316.630291
 30
0.0
 11
117.772207
 21
316.377193
 31
0.0
  0
LINE
  5
2AC
330
1F
100
AcDbEntity
  8
0
  6
HIDDEN2
 62
     1
 60
     1
100
AcDbLine
 10
121.519144
 20
316.630291
 30
0.0
 11
121.266045
 21
316.377193
 31
0.0
  0
LINE
  5
2AD
330
1F
100
AcDbEntity
  8
0
  6
HIDDEN2
 62
     1
 60
     1
100
AcDbLine
 10
121.266045
 20
314.380291
 30
0.0
 11
121.266045
 21
316.377193
 31
0.0
  0
LINE
  5
2AE
330
1F
100
AcDbEntity
  8
0
  6
HIDDEN2
 62
     1
 60
     1
100
AcDbLine
 10
121.266045
 20
317.883389
 30
0.0
 11
121.266045
 21
327.880291
 31
0.0
  0
LINE
  5
2AF
330
1F
100
AcDbEntity
  8
0
  6
HIDDEN2
 62
     1
 60
     1
100
AcDbLine
 10
121.519144
 20
317.630291
 30
0.0
 11
121.266045
 21
317.883389
 31
0.0
  0
LINE
  5
2B0
330
1F
100
AcDbEntity
  8
0
  6
HIDDEN2
 62
     1
 60
     1
100
AcDbLine
 10
117.772207
 20
317.883389
 30
0.0
 11
121.266045
 21
317.883389
 31
0.0
  0
LINE
  5
2B1
330
1F
100
AcDbEntity
  8
0
  6
HIDDEN2
 62
     1
 60
     1
100
AcDbLine
 10
117.772207
 20
316.377193
 30
0.0
 11
121.266045
 21
316.377193
 31
0.0
  0
LINE
  5
2B2
330
1F
100
AcDbEntity
  8
0
  6
HIDDEN2
 62
     1
 60
     1
100
AcDbLine
 10
121.266048
 20
335.88029
 30
0.0
 11
121.266072
 21
345.877193
 31
0.0
  0
LINE
  5
2B3
330
1F
100
AcDbEntity
  8
0
  6
HIDDEN2
 62
     1
 60
     1
100
AcDbLine
 10
121.266076
 20
347.383389
 30
0.0
 11
121.266081
 21
349.380291
 31
0.0
  0
LINE
  5
2B4
330
1F
100
AcDbEntity
  8
0
  6
HIDDEN2
 62
     1
 60
     1
100
AcDbLine
 10
117.772242
 20
357.468583
 30
0.0
 11
117.772242
 21
347.383389
 31
0.0
  0
LINE
  5
2B5
330
1F
100
AcDbEntity
  8
0
  6
HIDDEN2
 62
     1
 60
     1
100
AcDbLine
 10
117.772242
 20
345.877193
 30
0.0
 11
117.772242
 21
335.880291
 31
0.0
  0
LINE
  5
2B6
330
1F
100
AcDbEntity
  8
0
  6
HIDDEN2
 62
     1
 60
     1
100
AcDbLine
 10
106.115879
 20
358.283555
 30
0.0
 11
105.862781
 21
358.536653
 31
0.0
  0
LINE
  5
2B7
330
1F
100
AcDbEntity
  8
0
  6
HIDDEN2
 62
     1
 60
     1
100
AcDbLine
 10
105.862781
 20
358.536653
 30
0.0
 11
105.862781
 21
362.030415
 31
0.0
  0
LINE
  5
2B8
330
1F
100
AcDbEntity
  8
0
  6
HIDDEN2
 62
     1
 60
     1
100
AcDbLine
 10
106.115879
 20
362.283513
 30
0.0
 11
105.862781
 21
362.030415
 31
0.0
  0
LINE
  5
2B9
330
1F
100
AcDbEntity
  8
0
  6
HIDDEN2
 62
     1
 60
     1
100
AcDbLine
 10
106.115879
 20
301.477069
 30
0.0
 11
105.862781
 21
301.730167
 31
0.0
  0
LINE
  5
2BA
330
1F
100
AcDbEntity
  8
0
  6
HIDDEN2
 62
     1
 60
     1
100
AcDbLine
 10
105.862781
 20
301.730167
 30
0.0
 11
105.862781
 21
305.223929
 31
0.0
  0
LINE
  5
2BB
330
1F
100
AcDbEntity
  8
0
  6
HIDDEN2
 62
     1
 60
     1
100
AcDbLine
 10
106.115879
 20
305.477027
 30
0.0
 11
105.862781
 21
305.223929
 31
0.0
  0
LINE
  5
2BC
330
1F
100
AcDbEntity
  8
0
  6
HIDDEN2
 62
     1
 60
     1
100
AcDbLine
 10
76.368978
 20
301.730096
 30
0.0
 11
85.362781
 21
301.730118
 31
0.0
  0
LINE
  5
2BD
330
1F
100
AcDbEntity
  8
0
  6
HIDDEN2
 62
     1
 60
     1
100
AcDbLine
 10
96.868978
 20
301.730145
 30
0.0
 11
105.862781
 21
301.730167
 31
0.0
  0
LINE
  5
2BE
330
1F
100
AcDbEntity
  8
0
  6
HIDDEN2
 62
     1
 60
     1
100
AcDbLine
 10
86.868978
 20
301.730121
 30
0.0
 11
95.362781
 21
301.730142
 31
0.0
  0
LINE
  5
2BF
330
1F
100
AcDbEntity
  8
0
  6
HIDDEN2
 62
     1
 60
     1
100
AcDbLine
 10
96.868978
 20
305.223929
 30
0.0
 11
105.862781
 21
305.223929
 31
0.0
  0
LINE
  5
2C0
330
1F
100
AcDbEntity
  8
0
  6
HIDDEN2
 62
     1
 60
     1
100
AcDbLine
 10
76.368978
 20
305.223929
 30
0.0
 11
85.362781
 21
305.223929
 31
0.0
  0
LINE
  5
2C1
330
1F
100
AcDbEntity
  8
0
  6
HIDDEN2
 62
     1
 60
     1
100
AcDbLine
 10
86.868978
 20
305.223929
 30
0.0
 11
95.362781
 21
305.223929
 31
0.0
  0
LINE
  5
2C2
330
1F
100
AcDbEntity
  8
0
  6
HIDDEN2
 62
     1
 60
     1
100
AcDbLine
 10
76.368978
 20
358.536653
 30
0.0
 11
85.362781
 21
358.536653
 31
0.0
  0
LINE
  5
2C3
330
1F
100
AcDbEntity
  8
0
  6
HIDDEN2
 62
     1
 60
     1
100
AcDbLine
 10
86.868978
 20
358.536653
 30
0.0
 11
95.362781
 21
358.536653
 31
0.0
  0
LINE
  5
2C4
330
1F
100
AcDbEntity
  8
0
  6
HIDDEN2
 62
     1
 60
     1
100
AcDbLine
 10
96.868978
 20
358.536653
 30
0.0
 11
105.862781
 21
358.536653
 31
0.0
  0
LINE
  5
2C5
330
1F
100
AcDbEntity
  8
0
  6
HIDDEN2
 62
     1
 60
     1
100
AcDbLine
 10
96.868978
 20
362.030437
 30
0.0
 11
105.862781
 21
362.030415
 31
0.0
  0
LINE
  5
2C6
330
1F
100
AcDbEntity
  8
0
  6
HIDDEN2
 62
     1
 60
     1
100
AcDbLine
 10
86.868978
 20
362.030461
 30
0.0
 11
95.362781
 21
362.03044
 31
0.0
  0
LINE
  5
2C7
330
1F
100
AcDbEntity
  8
0
  6
HIDDEN2
 62
     1
 60
     1
100
AcDbLine
 10
76.368978
 20
362.030486
 30
0.0
 11
85.362781
 21
362.030464
 31
0.0
  0
LINE
  5
2C8
330
1F
100
AcDbEntity
  8
109
  6
HIDDEN2
 62
     1
100
AcDbLine
 10
250.000001
 20
25.082544
 30
0.0
 11
234.000001
 21
24.803264
 31
0.0
  0
LINE
  5
2C9
330
1F
100
AcDbEntity
  8
109
  6
HIDDEN2
 62
     1
100
AcDbLine
 10
249.999999
 20
-25.082545
 30
0.0
 11
233.999999
 21
-24.803264
 31
0.0
  0
LINE
  5
2CA
330
1F
100
AcDbEntity
  8
109
  6
HIDDEN2
 62
     1
100
AcDbLine
 10
234.000001
 20
24.803264
 30
0.0
 11
233.999999
 21
-24.803264
 31
0.0
  0
LINE
  5
2CB
330
1F
100
AcDbEntity
  8
109
  6
HIDDEN2
 62
     1
100
AcDbLine
 10
-30.408112
 20
24.468613
 30
0.0
 11
-31.052437
 21
23.113602
 31
0.0
  0
LINE
  5
2CC
330
1F
100
AcDbEntity
  8
109
  6
HIDDEN2
 62
     1
100
AcDbLine
 10
-31.052437
 20
23.113602
 30
0.0
 11
-31.554977
 21
21.699844
 31
0.0
  0
LINE
  5
2CD
330
1F
100
AcDbEntity
  8
109
  6
HIDDEN2
 62
     1
100
AcDbLine
 10
-32.168831
 20
17.580948
 30
0.0
 11
-32.169052
 21
17.499985
 31
0.0
  0
LINE
  5
2CE
330
1F
100
AcDbEntity
  8
109
  6
HIDDEN2
 62
     1
100
AcDbLine
 10
-32.169048
 20
17.499985
 30
0.0
 11
-32.169048
 21
14.419052
 31
0.0
  0
LINE
  5
2CF
330
1F
100
AcDbEntity
  8
109
  6
HIDDEN2
 62
     1
100
AcDbLine
 10
-32.169048
 20
9.580948
 30
0.0
 11
-32.169048
 21
6.419052
 31
0.0
  0
LINE
  5
2D0
330
1F
100
AcDbEntity
  8
109
  6
HIDDEN2
 62
     1
100
AcDbLine
 10
-32.169048
 20
1.580948
 30
0.0
 11
-32.169048
 21
-1.580948
 31
0.0
  0
LINE
  5
2D1
330
1F
100
AcDbEntity
  8
109
  6
HIDDEN2
 62
     1
100
AcDbLine
 10
-32.169048
 20
-6.419052
 30
0.0
 11
-32.169048
 21
-9.580948
 31
0.0
  0
LINE
  5
2D2
330
1F
100
AcDbEntity
  8
109
  6
HIDDEN2
 62
     1
100
AcDbLine
 10
-32.169048
 20
-14.419052
 30
0.0
 11
-32.169048
 21
-17.500015
 31
0.0
  0
LINE
  5
2D3
330
1F
100
AcDbEntity
  8
109
  6
HIDDEN2
 62
     1
100
AcDbLine
 10
-32.169052
 20
-17.500015
 30
0.0
 11
-32.168831
 21
-17.580978
 31
0.0
  0
LINE
  5
2D4
330
1F
100
AcDbEntity
  8
109
  6
HIDDEN2
 62
     1
100
AcDbLine
 10
-31.554977
 20
-21.699875
 30
0.0
 11
-31.052437
 21
-23.113632
 31
0.0
  0
LINE
  5
2D5
330
1F
100
AcDbEntity
  8
109
  6
HIDDEN2
 62
     1
100
AcDbLine
 10
-31.052437
 20
-23.113632
 30
0.0
 11
-30.408112
 21
-24.468643
 31
0.0
  0
LINE
  5
2D6
330
1F
100
AcDbEntity
  8
109
  6
HIDDEN2
 62
     1
100
AcDbLine
 10
-28.463203
 20
-27.246262
 30
0.0
 11
-27.872589
 21
-27.872604
 31
0.0
  0
LINE
  5
2D7
330
1F
100
AcDbEntity
  8
109
  6
HIDDEN2
 62
     1
100
AcDbLine
 10
-27.872589
 20
-27.872604
 30
0.0
 11
-27.24625
 21
-28.463211
 31
0.0
  0
LINE
  5
2D8
330
1F
100
AcDbEntity
  8
109
  6
HIDDEN2
 62
     1
100
AcDbLine
 10
-24.468624
 20
-30.408127
 30
0.0
 11
-23.113605
 21
-31.052444
 31
0.0
  0
LINE
  5
2D9
330
1F
100
AcDbEntity
  8
109
  6
HIDDEN2
 62
     1
100
AcDbLine
 10
-23.113605
 20
-31.052444
 30
0.0
 11
-21.699856
 21
-31.554977
 31
0.0
  0
LINE
  5
2DA
330
1F
100
AcDbEntity
  8
109
  6
HIDDEN2
 62
     1
100
AcDbLine
 10
-17.580952
 20
-32.168839
 30
0.0
 11
-17.500004
 21
-32.169052
 31
0.0
  0
LINE
  5
2DB
330
1F
100
AcDbEntity
  8
109
  6
HIDDEN2
 62
     1
100
AcDbLine
 10
-17.500004
 20
-32.169052
 30
0.0
 11
-14.419048
 21
-32.169052
 31
0.0
  0
LINE
  5
2DC
330
1F
100
AcDbEntity
  8
109
  6
HIDDEN2
 62
     1
100
AcDbLine
 10
-9.580952
 20
-32.169052
 30
0.0
 11
-6.419048
 21
-32.169052
 31
0.0
  0
LINE
  5
2DD
330
1F
100
AcDbEntity
  8
109
  6
HIDDEN2
 62
     1
100
AcDbLine
 10
-6.419048
 20
32.169052
 30
0.0
 11
-9.580952
 21
32.169052
 31
0.0
  0
LINE
  5
2DE
330
1F
100
AcDbEntity
  8
109
  6
HIDDEN2
 62
     1
100
AcDbLine
 10
-14.419048
 20
32.169052
 30
0.0
 11
-17.500004
 21
32.169052
 31
0.0
  0
LINE
  5
2DF
330
1F
100
AcDbEntity
  8
109
  6
HIDDEN2
 62
     1
100
AcDbLine
 10
-17.500004
 20
32.169022
 30
0.0
 11
-17.580952
 21
32.168808
 31
0.0
  0
LINE
  5
2E0
330
1F
100
AcDbEntity
  8
109
  6
HIDDEN2
 62
     1
100
AcDbLine
 10
-21.699856
 20
31.554947
 30
0.0
 11
-23.113605
 21
31.052414
 31
0.0
  0
LINE
  5
2E1
330
1F
100
AcDbEntity
  8
109
  6
HIDDEN2
 62
     1
100
AcDbLine
 10
-23.113605
 20
31.052414
 30
0.0
 11
-24.468624
 21
30.408096
 31
0.0
  0
LINE
  5
2E2
330
1F
100
AcDbEntity
  8
109
  6
HIDDEN2
 62
     1
100
AcDbLine
 10
-27.24625
 20
28.463181
 30
0.0
 11
-27.872589
 21
27.872574
 31
0.0
  0
LINE
  5
2E3
330
1F
100
AcDbEntity
  8
109
  6
HIDDEN2
 62
     1
100
AcDbLine
 10
-27.872589
 20
27.872574
 30
0.0
 11
-28.463203
 21
27.246231
 31
0.0
  0
LINE
  5
2E4
330
1F
100
AcDbEntity
  8
109
  6
HIDDEN2
 62
     1
100
AcDbLine
 10
-17.500004
 20
-32.104752
 30
0.0
 11
-18.931515
 21
-32.034409
 31
0.0
  0
LINE
  5
2E5
330
1F
100
AcDbEntity
  8
109
  6
HIDDEN2
 62
     1
100
AcDbLine
 10
-18.931515
 20
-32.034409
 30
0.0
 11
-20.349247
 21
-31.824112
 31
0.0
  0
LINE
  5
2E6
330
1F
100
AcDbEntity
  8
109
  6
HIDDEN2
 62
     1
100
AcDbLine
 10
-20.349247
 20
-31.824112
 30
0.0
 11
-21.739536
 21
-31.475876
 31
0.0
  0
LINE
  5
2E7
330
1F
100
AcDbEntity
  8
109
  6
HIDDEN2
 62
     1
100
AcDbLine
 10
-21.739536
 20
-31.475876
 30
0.0
 11
-23.088993
 21
-30.993027
 31
0.0
  0
LINE
  5
2E8
330
1F
100
AcDbEntity
  8
109
  6
HIDDEN2
 62
     1
100
AcDbLine
 10
-23.088993
 20
-30.993027
 30
0.0
 11
-24.384624
 21
-30.380234
 31
0.0
  0
LINE
  5
2E9
330
1F
100
AcDbEntity
  8
109
  6
HIDDEN2
 62
     1
100
AcDbLine
 10
-24.384624
 20
-30.380234
 30
0.0
 11
-25.613956
 21
-29.643417
 31
0.0
  0
LINE
  5
2EA
330
1F
100
AcDbEntity
  8
109
  6
HIDDEN2
 62
     1
100
AcDbLine
 10
-25.613956
 20
-29.643417
 30
0.0
 11
-26.765148
 21
-28.789627
 31
0.0
  0
LINE
  5
2EB
330
1F
100
AcDbEntity
  8
109
  6
HIDDEN2
 62
     1
100
AcDbLine
 10
-26.765148
 20
-28.789627
 30
0.0
 11
-27.827106
 21
-27.827133
 31
0.0
  0
LINE
  5
2EC
330
1F
100
AcDbEntity
  8
109
  6
HIDDEN2
 62
     1
100
AcDbLine
 10
-27.827106
 20
-27.827133
 30
0.0
 11
-28.789612
 21
-26.765152
 31
0.0
  0
LINE
  5
2ED
330
1F
100
AcDbEntity
  8
109
  6
HIDDEN2
 62
     1
100
AcDbLine
 10
-28.789612
 20
-26.765152
 30
0.0
 11
-29.643394
 21
-25.613968
 31
0.0
  0
LINE
  5
2EE
330
1F
100
AcDbEntity
  8
109
  6
HIDDEN2
 62
     1
100
AcDbLine
 10
-29.643394
 20
-25.613968
 30
0.0
 11
-30.380226
 21
-24.384628
 31
0.0
  0
LINE
  5
2EF
330
1F
100
AcDbEntity
  8
109
  6
HIDDEN2
 62
     1
100
AcDbLine
 10
-30.380226
 20
-24.384628
 30
0.0
 11
-30.993015
 21
-23.089005
 31
0.0
  0
LINE
  5
2F0
330
1F
100
AcDbEntity
  8
109
  6
HIDDEN2
 62
     1
100
AcDbLine
 10
-30.993015
 20
-23.089005
 30
0.0
 11
-31.475861
 21
-21.739548
 31
0.0
  0
LINE
  5
2F1
330
1F
100
AcDbEntity
  8
109
  6
HIDDEN2
 62
     1
100
AcDbLine
 10
-31.475861
 20
-21.739548
 30
0.0
 11
-31.824108
 21
-20.349258
 31
0.0
  0
LINE
  5
2F2
330
1F
100
AcDbEntity
  8
109
  6
HIDDEN2
 62
     1
100
AcDbLine
 10
-31.824108
 20
-20.349258
 30
0.0
 11
-32.034409
 21
-18.931534
 31
0.0
  0
LINE
  5
2F3
330
1F
100
AcDbEntity
  8
109
  6
HIDDEN2
 62
     1
100
AcDbLine
 10
-32.034409
 20
-18.931534
 30
0.0
 11
-32.104736
 21
-17.500015
 31
0.0
  0
LINE
  5
2F4
330
1F
100
AcDbEntity
  8
109
  6
HIDDEN2
 62
     1
100
AcDbLine
 10
-32.104729
 20
-17.500015
 30
0.0
 11
-32.104729
 21
17.499985
 31
0.0
  0
LINE
  5
2F5
330
1F
100
AcDbEntity
  8
109
  6
HIDDEN2
 62
     1
100
AcDbLine
 10
-32.104733
 20
17.499985
 30
0.0
 11
-32.034409
 21
18.931503
 31
0.0
  0
LINE
  5
2F6
330
1F
100
AcDbEntity
  8
109
  6
HIDDEN2
 62
     1
100
AcDbLine
 10
-32.034409
 20
18.931503
 30
0.0
 11
-31.824108
 21
20.349228
 31
0.0
  0
LINE
  5
2F7
330
1F
100
AcDbEntity
  8
109
  6
HIDDEN2
 62
     1
100
AcDbLine
 10
-31.824108
 20
20.349228
 30
0.0
 11
-31.475861
 21
21.739517
 31
0.0
  0
LINE
  5
2F8
330
1F
100
AcDbEntity
  8
109
  6
HIDDEN2
 62
     1
100
AcDbLine
 10
-31.475861
 20
21.739517
 30
0.0
 11
-30.993015
 21
23.088974
 31
0.0
  0
LINE
  5
2F9
330
1F
100
AcDbEntity
  8
109
  6
HIDDEN2
 62
     1
100
AcDbLine
 10
-30.993015
 20
23.088974
 30
0.0
 11
-30.380226
 21
24.384598
 31
0.0
  0
LINE
  5
2FA
330
1F
100
AcDbEntity
  8
109
  6
HIDDEN2
 62
     1
100
AcDbLine
 10
-30.380226
 20
24.384598
 30
0.0
 11
-29.643394
 21
25.613937
 31
0.0
  0
LINE
  5
2FB
330
1F
100
AcDbEntity
  8
109
  6
HIDDEN2
 62
     1
100
AcDbLine
 10
-29.643394
 20
25.613937
 30
0.0
 11
-28.789612
 21
26.765121
 31
0.0
  0
LINE
  5
2FC
330
1F
100
AcDbEntity
  8
109
  6
HIDDEN2
 62
     1
100
AcDbLine
 10
-28.789612
 20
26.765121
 30
0.0
 11
-27.827106
 21
27.827103
 31
0.0
  0
LINE
  5
2FD
330
1F
100
AcDbEntity
  8
109
  6
HIDDEN2
 62
     1
100
AcDbLine
 10
-27.827106
 20
27.827103
 30
0.0
 11
-26.765148
 21
28.789597
 31
0.0
  0
LINE
  5
2FE
330
1F
100
AcDbEntity
  8
109
  6
HIDDEN2
 62
     1
100
AcDbLine
 10
-26.765148
 20
28.789597
 30
0.0
 11
-25.613956
 21
29.643387
 31
0.0
  0
LINE
  5
2FF
330
1F
100
AcDbEntity
  8
109
  6
HIDDEN2
 62
     1
100
AcDbLine
 10
-25.613956
 20
29.643387
 30
0.0
 11
-24.384624
 21
30.380203
 31
0.0
  0
LINE
  5
300
330
1F
100
AcDbEntity
  8
109
  6
HIDDEN2
 62
     1
100
AcDbLine
 10
-24.384624
 20
30.380203
 30
0.0
 11
-23.088993
 21
30.992996
 31
0.0
  0
LINE
  5
301
330
1F
100
AcDbEntity
  8
109
  6
HIDDEN2
 62
     1
100
AcDbLine
 10
-23.088993
 20
30.992996
 30
0.0
 11
-21.739536
 21
31.475845
 31
0.0
  0
LINE
  5
302
330
1F
100
AcDbEntity
  8
109
  6
HIDDEN2
 62
     1
100
AcDbLine
 10
-21.739536
 20
31.475845
 30
0.0
 11
-20.349247
 21
31.824081
 31
0.0
  0
LINE
  5
303
330
1F
100
AcDbEntity
  8
109
  6
HIDDEN2
 62
     1
100
AcDbLine
 10
-20.349247
 20
31.824081
 30
0.0
 11
-18.931515
 21
32.034378
 31
0.0
  0
LINE
  5
304
330
1F
100
AcDbEntity
  8
109
  6
HIDDEN2
 62
     1
100
AcDbLine
 10
-18.931515
 20
32.034378
 30
0.0
 11
-17.500004
 21
32.104721
 31
0.0
  0
LINE
  5
305
330
1F
100
AcDbEntity
  8
109
  6
HIDDEN2
 62
     1
100
AcDbLine
 10
-14.419048
 20
-32.169052
 30
0.0
 11
-14.419048
 21
-32.694412
 31
0.0
  0
LINE
  5
306
330
1F
100
AcDbEntity
  8
109
  6
HIDDEN2
 62
     1
100
AcDbLine
 10
-9.580952
 20
-32.694412
 30
0.0
 11
-14.419048
 21
-32.694412
 31
0.0
  0
LINE
  5
307
330
1F
100
AcDbEntity
  8
109
  6
HIDDEN2
 62
     1
100
AcDbLine
 10
-9.580952
 20
-32.694412
 30
0.0
 11
-9.580952
 21
-32.169052
 31
0.0
  0
LINE
  5
308
330
1F
100
AcDbEntity
  8
109
  6
HIDDEN2
 62
     1
100
AcDbLine
 10
-6.419048
 20
-32.169052
 30
0.0
 11
-6.419048
 21
-32.694412
 31
0.0
  0
LINE
  5
309
330
1F
100
AcDbEntity
  8
109
  6
HIDDEN2
 62
     1
100
AcDbLine
 10
-1.580952
 20
-32.694412
 30
0.0
 11
-6.419048
 21
-32.694412
 31
0.0
  0
LINE
  5
30A
330
1F
100
AcDbEntity
  8
109
  6
HIDDEN2
 62
     1
100
AcDbLine
 10
-1.580952
 20
-32.694412
 30
0.0
 11
-1.580952
 21
-32.169052
 31
0.0
  0
LINE
  5
30B
330
1F
100
AcDbEntity
  8
109
  6
HIDDEN2
 62
     1
100
AcDbLine
 10
-32.168827
 20
-17.580948
 30
0.0
 11
-32.694206
 21
-17.580948
 31
0.0
  0
LINE
  5
30C
330
1F
100
AcDbEntity
  8
109
  6
HIDDEN2
 62
     1
100
AcDbLine
 10
-32.062645
 20
-21.835892
 30
0.0
 11
-32.407345
 21
-20.439682
 31
0.0
  0
LINE
  5
30D
330
1F
100
AcDbEntity
  8
109
  6
HIDDEN2
 62
     1
100
AcDbLine
 10
-32.407345
 20
-20.439682
 30
0.0
 11
-32.618496
 21
-19.017105
 31
0.0
  0
LINE
  5
30E
330
1F
100
AcDbEntity
  8
109
  6
HIDDEN2
 62
     1
100
AcDbLine
 10
-32.618496
 20
-19.017105
 30
0.0
 11
-32.69421
 21
-17.580978
 31
0.0
  0
LINE
  5
30F
330
1F
100
AcDbEntity
  8
109
  6
HIDDEN2
 62
     1
100
AcDbLine
 10
-32.062641
 20
-21.835892
 30
0.0
 11
-31.554974
 21
-21.699844
 31
0.0
  0
LINE
  5
310
330
1F
100
AcDbEntity
  8
109
  6
HIDDEN2
 62
     1
100
AcDbLine
 10
-30.408108
 20
-24.468613
 30
0.0
 11
-30.863274
 21
-24.73143
 31
0.0
  0
LINE
  5
311
330
1F
100
AcDbEntity
  8
109
  6
HIDDEN2
 62
     1
100
AcDbLine
 10
-28.865818
 20
-27.584091
 30
0.0
 11
-29.603863
 21
-26.685165
 31
0.0
  0
LINE
  5
312
330
1F
100
AcDbEntity
  8
109
  6
HIDDEN2
 62
     1
100
AcDbLine
 10
-29.603863
 20
-26.685165
 30
0.0
 11
-30.270985
 21
-25.732407
 31
0.0
  0
LINE
  5
313
330
1F
100
AcDbEntity
  8
109
  6
HIDDEN2
 62
     1
100
AcDbLine
 10
-30.270985
 20
-25.732407
 30
0.0
 11
-30.863277
 21
-24.73143
 31
0.0
  0
LINE
  5
314
330
1F
100
AcDbEntity
  8
109
  6
HIDDEN2
 62
     1
100
AcDbLine
 10
-28.865814
 20
-27.584091
 30
0.0
 11
-28.4632
 21
-27.246262
 31
0.0
  0
LINE
  5
315
330
1F
100
AcDbEntity
  8
109
  6
HIDDEN2
 62
     1
100
AcDbLine
 10
-27.246246
 20
-28.463211
 30
0.0
 11
-27.58408
 21
-28.865829
 31
0.0
  0
LINE
  5
316
330
1F
100
AcDbEntity
  8
109
  6
HIDDEN2
 62
     1
100
AcDbLine
 10
-24.731419
 20
-30.863297
 30
0.0
 11
-25.732403
 21
-30.271011
 31
0.0
  0
LINE
  5
317
330
1F
100
AcDbEntity
  8
109
  6
HIDDEN2
 62
     1
100
AcDbLine
 10
-25.732403
 20
-30.271011
 30
0.0
 11
-26.685154
 21
-29.603867
 31
0.0
  0
LINE
  5
318
330
1F
100
AcDbEntity
  8
109
  6
HIDDEN2
 62
     1
100
AcDbLine
 10
-26.685154
 20
-29.603867
 30
0.0
 11
-27.584084
 21
-28.865829
 31
0.0
  0
LINE
  5
319
330
1F
100
AcDbEntity
  8
109
  6
HIDDEN2
 62
     1
100
AcDbLine
 10
-24.731411
 20
-30.863266
 30
0.0
 11
-24.468624
 21
-30.408127
 31
0.0
  0
LINE
  5
31A
330
1F
100
AcDbEntity
  8
109
  6
HIDDEN2
 62
     1
100
AcDbLine
 10
-21.699848
 20
-31.554977
 30
0.0
 11
-21.83588
 21
-32.062637
 31
0.0
  0
LINE
  5
31B
330
1F
100
AcDbEntity
  8
109
  6
HIDDEN2
 62
     1
100
AcDbLine
 10
-17.580952
 20
-32.694229
 30
0.0
 11
-19.017101
 21
-32.618515
 31
0.0
  0
LINE
  5
31C
330
1F
100
AcDbEntity
  8
109
  6
HIDDEN2
 62
     1
100
AcDbLine
 10
-19.017101
 20
-32.618515
 30
0.0
 11
-20.439663
 21
-32.407364
 31
0.0
  0
LINE
  5
31D
330
1F
100
AcDbEntity
  8
109
  6
HIDDEN2
 62
     1
100
AcDbLine
 10
-20.439663
 20
-32.407364
 30
0.0
 11
-21.83588
 21
-32.062668
 31
0.0
  0
LINE
  5
31E
330
1F
100
AcDbEntity
  8
109
  6
HIDDEN2
 62
     1
100
AcDbLine
 10
-17.580952
 20
-32.694199
 30
0.0
 11
-17.580952
 21
-32.168839
 31
0.0
  0
LINE
  5
31F
330
1F
100
AcDbEntity
  8
109
  6
HIDDEN2
 62
     1
100
AcDbLine
 10
-32.169048
 20
14.419052
 30
0.0
 11
-32.69442
 21
14.419052
 31
0.0
  0
LINE
  5
320
330
1F
100
AcDbEntity
  8
109
  6
HIDDEN2
 62
     1
100
AcDbLine
 10
-32.69442
 20
9.580948
 30
0.0
 11
-32.69442
 21
14.419052
 31
0.0
  0
LINE
  5
321
330
1F
100
AcDbEntity
  8
109
  6
HIDDEN2
 62
     1
100
AcDbLine
 10
-32.69442
 20
9.580948
 30
0.0
 11
-32.169048
 21
9.580948
 31
0.0
  0
LINE
  5
322
330
1F
100
AcDbEntity
  8
109
  6
HIDDEN2
 62
     1
100
AcDbLine
 10
-32.169048
 20
6.419052
 30
0.0
 11
-32.69442
 21
6.419052
 31
0.0
  0
LINE
  5
323
330
1F
100
AcDbEntity
  8
109
  6
HIDDEN2
 62
     1
100
AcDbLine
 10
-32.69442
 20
1.580948
 30
0.0
 11
-32.69442
 21
6.419052
 31
0.0
  0
LINE
  5
324
330
1F
100
AcDbEntity
  8
109
  6
HIDDEN2
 62
     1
100
AcDbLine
 10
-32.69442
 20
1.580948
 30
0.0
 11
-32.169048
 21
1.580948
 31
0.0
  0
LINE
  5
325
330
1F
100
AcDbEntity
  8
109
  6
HIDDEN2
 62
     1
100
AcDbLine
 10
-32.169048
 20
-1.580948
 30
0.0
 11
-32.69442
 21
-1.580948
 31
0.0
  0
LINE
  5
326
330
1F
100
AcDbEntity
  8
109
  6
HIDDEN2
 62
     1
100
AcDbLine
 10
-32.69442
 20
-6.419052
 30
0.0
 11
-32.69442
 21
-1.580948
 31
0.0
  0
LINE
  5
327
330
1F
100
AcDbEntity
  8
109
  6
HIDDEN2
 62
     1
100
AcDbLine
 10
-32.69442
 20
-6.419052
 30
0.0
 11
-32.169048
 21
-6.419052
 31
0.0
  0
LINE
  5
328
330
1F
100
AcDbEntity
  8
109
  6
HIDDEN2
 62
     1
100
AcDbLine
 10
-32.169048
 20
-9.580948
 30
0.0
 11
-32.69442
 21
-9.580948
 31
0.0
  0
LINE
  5
329
330
1F
100
AcDbEntity
  8
109
  6
HIDDEN2
 62
     1
100
AcDbLine
 10
-32.69442
 20
-14.419052
 30
0.0
 11
-32.69442
 21
-9.580948
 31
0.0
  0
LINE
  5
32A
330
1F
100
AcDbEntity
  8
109
  6
HIDDEN2
 62
     1
100
AcDbLine
 10
-32.69442
 20
-14.419052
 30
0.0
 11
-32.169048
 21
-14.419052
 31
0.0
  0
LINE
  5
32B
330
1F
100
AcDbEntity
  8
109
  6
HIDDEN2
 62
     1
100
AcDbLine
 10
-30.863274
 20
24.7314
 30
0.0
 11
-30.408108
 21
24.468613
 31
0.0
  0
LINE
  5
32C
330
1F
100
AcDbEntity
  8
109
  6
HIDDEN2
 62
     1
100
AcDbLine
 10
-31.554974
 20
21.699844
 30
0.0
 11
-32.062641
 21
21.835861
 31
0.0
  0
LINE
  5
32D
330
1F
100
AcDbEntity
  8
109
  6
HIDDEN2
 62
     1
100
AcDbLine
 10
-32.69421
 20
17.580948
 30
0.0
 11
-32.618496
 21
19.017075
 31
0.0
  0
LINE
  5
32E
330
1F
100
AcDbEntity
  8
109
  6
HIDDEN2
 62
     1
100
AcDbLine
 10
-32.618496
 20
19.017075
 30
0.0
 11
-32.407345
 21
20.439651
 31
0.0
  0
LINE
  5
32F
330
1F
100
AcDbEntity
  8
109
  6
HIDDEN2
 62
     1
100
AcDbLine
 10
-32.407345
 20
20.439651
 30
0.0
 11
-32.062645
 21
21.835861
 31
0.0
  0
LINE
  5
330
330
1F
100
AcDbEntity
  8
109
  6
HIDDEN2
 62
     1
100
AcDbLine
 10
-32.694206
 20
17.580948
 30
0.0
 11
-32.168827
 21
17.580948
 31
0.0
  0
LINE
  5
331
330
1F
100
AcDbEntity
  8
109
  6
HIDDEN2
 62
     1
100
AcDbLine
 10
-17.580952
 20
32.168808
 30
0.0
 11
-17.580952
 21
32.694199
 31
0.0
  0
LINE
  5
332
330
1F
100
AcDbEntity
  8
109
  6
HIDDEN2
 62
     1
100
AcDbLine
 10
-21.83588
 20
32.062637
 30
0.0
 11
-20.439663
 21
32.407333
 31
0.0
  0
LINE
  5
333
330
1F
100
AcDbEntity
  8
109
  6
HIDDEN2
 62
     1
100
AcDbLine
 10
-20.439663
 20
32.407333
 30
0.0
 11
-19.017101
 21
32.618484
 31
0.0
  0
LINE
  5
334
330
1F
100
AcDbEntity
  8
109
  6
HIDDEN2
 62
     1
100
AcDbLine
 10
-19.017101
 20
32.618484
 30
0.0
 11
-17.580952
 21
32.694199
 31
0.0
  0
LINE
  5
335
330
1F
100
AcDbEntity
  8
109
  6
HIDDEN2
 62
     1
100
AcDbLine
 10
-21.83588
 20
32.062637
 30
0.0
 11
-21.699848
 21
31.554977
 31
0.0
  0
LINE
  5
336
330
1F
100
AcDbEntity
  8
109
  6
HIDDEN2
 62
     1
100
AcDbLine
 10
-24.468624
 20
30.408096
 30
0.0
 11
-24.731411
 21
30.863266
 31
0.0
  0
LINE
  5
337
330
1F
100
AcDbEntity
  8
109
  6
HIDDEN2
 62
     1
100
AcDbLine
 10
-27.584084
 20
28.865799
 30
0.0
 11
-26.685154
 21
29.603836
 31
0.0
  0
LINE
  5
338
330
1F
100
AcDbEntity
  8
109
  6
HIDDEN2
 62
     1
100
AcDbLine
 10
-26.685154
 20
29.603836
 30
0.0
 11
-25.732403
 21
30.270981
 31
0.0
  0
LINE
  5
339
330
1F
100
AcDbEntity
  8
109
  6
HIDDEN2
 62
     1
100
AcDbLine
 10
-25.732403
 20
30.270981
 30
0.0
 11
-24.731419
 21
30.863266
 31
0.0
  0
LINE
  5
33A
330
1F
100
AcDbEntity
  8
109
  6
HIDDEN2
 62
     1
100
AcDbLine
 10
-27.58408
 20
28.865799
 30
0.0
 11
-27.246246
 21
28.463181
 31
0.0
  0
LINE
  5
33B
330
1F
100
AcDbEntity
  8
109
  6
HIDDEN2
 62
     1
100
AcDbLine
 10
-30.863277
 20
24.7314
 30
0.0
 11
-30.270985
 21
25.732376
 31
0.0
  0
LINE
  5
33C
330
1F
100
AcDbEntity
  8
109
  6
HIDDEN2
 62
     1
100
AcDbLine
 10
-30.270985
 20
25.732376
 30
0.0
 11
-29.603863
 21
26.685135
 31
0.0
  0
LINE
  5
33D
330
1F
100
AcDbEntity
  8
109
  6
HIDDEN2
 62
     1
100
AcDbLine
 10
-29.603863
 20
26.685135
 30
0.0
 11
-28.865818
 21
27.584061
 31
0.0
  0
LINE
  5
33E
330
1F
100
AcDbEntity
  8
109
  6
HIDDEN2
 62
     1
100
AcDbLine
 10
-28.4632
 20
27.246231
 30
0.0
 11
-28.865814
 21
27.584091
 31
0.0
  0
LINE
  5
33F
330
1F
100
AcDbEntity
  8
109
  6
HIDDEN2
 62
     1
100
AcDbLine
 10
-1.580952
 20
32.169052
 30
0.0
 11
-1.580952
 21
32.694412
 31
0.0
  0
LINE
  5
340
330
1F
100
AcDbEntity
  8
109
  6
HIDDEN2
 62
     1
100
AcDbLine
 10
-6.419048
 20
32.694412
 30
0.0
 11
-1.580952
 21
32.694412
 31
0.0
  0
LINE
  5
341
330
1F
100
AcDbEntity
  8
109
  6
HIDDEN2
 62
     1
100
AcDbLine
 10
-6.419048
 20
32.694412
 30
0.0
 11
-6.419048
 21
32.169052
 31
0.0
  0
LINE
  5
342
330
1F
100
AcDbEntity
  8
109
  6
HIDDEN2
 62
     1
100
AcDbLine
 10
-9.580952
 20
32.169052
 30
0.0
 11
-9.580952
 21
32.694412
 31
0.0
  0
LINE
  5
343
330
1F
100
AcDbEntity
  8
109
  6
HIDDEN2
 62
     1
100
AcDbLine
 10
-14.419048
 20
32.694412
 30
0.0
 11
-9.580952
 21
32.694412
 31
0.0
  0
LINE
  5
344
330
1F
100
AcDbEntity
  8
109
  6
HIDDEN2
 62
     1
100
AcDbLine
 10
-14.419048
 20
32.694412
 30
0.0
 11
-14.419048
 21
32.169052
 31
0.0
  0
LINE
  5
345
330
1F
100
AcDbEntity
  8
109
  6
HIDDEN2
 62
     1
100
AcDbLine
 10
-17.500004
 20
-32.017471
 30
0.0
 11
-19.01749
 21
-31.937943
 31
0.0
  0
LINE
  5
346
330
1F
100
AcDbEntity
  8
109
  6
HIDDEN2
 62
     1
100
AcDbLine
 10
-19.01749
 20
-31.937943
 30
0.0
 11
-20.518353
 21
-31.700241
 31
0.0
  0
LINE
  5
347
330
1F
100
AcDbEntity
  8
109
  6
HIDDEN2
 62
     1
100
AcDbLine
 10
-20.518353
 20
-31.700241
 30
0.0
 11
-21.986141
 21
-31.306931
 31
0.0
  0
LINE
  5
348
330
1F
100
AcDbEntity
  8
109
  6
HIDDEN2
 62
     1
100
AcDbLine
 10
-21.986141
 20
-31.306931
 30
0.0
 11
-23.404781
 21
-30.762375
 31
0.0
  0
LINE
  5
349
330
1F
100
AcDbEntity
  8
109
  6
HIDDEN2
 62
     1
100
AcDbLine
 10
-23.404781
 20
-30.762375
 30
0.0
 11
-24.758732
 21
-30.072495
 31
0.0
  0
LINE
  5
34A
330
1F
100
AcDbEntity
  8
109
  6
HIDDEN2
 62
     1
100
AcDbLine
 10
-24.758732
 20
-30.072495
 30
0.0
 11
-26.033154
 21
-29.244888
 31
0.0
  0
LINE
  5
34B
330
1F
100
AcDbEntity
  8
109
  6
HIDDEN2
 62
     1
100
AcDbLine
 10
-26.033154
 20
-29.244888
 30
0.0
 11
-27.214077
 21
-28.288589
 31
0.0
  0
LINE
  5
34C
330
1F
100
AcDbEntity
  8
109
  6
HIDDEN2
 62
     1
100
AcDbLine
 10
-27.214077
 20
-28.288589
 30
0.0
 11
-28.288574
 21
-27.214096
 31
0.0
  0
LINE
  5
34D
330
1F
100
AcDbEntity
  8
109
  6
HIDDEN2
 62
     1
100
AcDbLine
 10
-28.288574
 20
-27.214096
 30
0.0
 11
-29.244873
 21
-26.033157
 31
0.0
  0
LINE
  5
34E
330
1F
100
AcDbEntity
  8
109
  6
HIDDEN2
 62
     1
100
AcDbLine
 10
-29.244873
 20
-26.033157
 30
0.0
 11
-30.072487
 21
-24.758743
 31
0.0
  0
LINE
  5
34F
330
1F
100
AcDbEntity
  8
109
  6
HIDDEN2
 62
     1
100
AcDbLine
 10
-30.072487
 20
-24.758743
 30
0.0
 11
-30.76236
 21
-23.4048
 31
0.0
  0
LINE
  5
350
330
1F
100
AcDbEntity
  8
109
  6
HIDDEN2
 62
     1
100
AcDbLine
 10
-30.76236
 20
-23.4048
 30
0.0
 11
-31.306923
 21
-21.98616
 31
0.0
  0
LINE
  5
351
330
1F
100
AcDbEntity
  8
109
  6
HIDDEN2
 62
     1
100
AcDbLine
 10
-31.306923
 20
-21.98616
 30
0.0
 11
-31.700218
 21
-20.518356
 31
0.0
  0
LINE
  5
352
330
1F
100
AcDbEntity
  8
109
  6
HIDDEN2
 62
     1
100
AcDbLine
 10
-31.700218
 20
-20.518356
 30
0.0
 11
-31.937931
 21
-19.017502
 31
0.0
  0
LINE
  5
353
330
1F
100
AcDbEntity
  8
109
  6
HIDDEN2
 62
     1
100
AcDbLine
 10
-31.937931
 20
-19.017502
 30
0.0
 11
-32.01746
 21
-17.500015
 31
0.0
  0
LINE
  5
354
330
1F
100
AcDbEntity
  8
109
  6
HIDDEN2
 62
     1
100
AcDbLine
 10
-32.017456
 20
-17.500015
 30
0.0
 11
-32.017456
 21
17.499985
 31
0.0
  0
LINE
  5
355
330
1F
100
AcDbEntity
  8
109
  6
HIDDEN2
 62
     1
100
AcDbLine
 10
-32.01746
 20
17.499985
 30
0.0
 11
-31.937931
 21
19.017471
 31
0.0
  0
LINE
  5
356
330
1F
100
AcDbEntity
  8
109
  6
HIDDEN2
 62
     1
100
AcDbLine
 10
-31.937931
 20
19.017471
 30
0.0
 11
-31.700218
 21
20.518326
 31
0.0
  0
LINE
  5
357
330
1F
100
AcDbEntity
  8
109
  6
HIDDEN2
 62
     1
100
AcDbLine
 10
-31.700218
 20
20.518326
 30
0.0
 11
-31.306923
 21
21.98613
 31
0.0
  0
LINE
  5
358
330
1F
100
AcDbEntity
  8
109
  6
HIDDEN2
 62
     1
100
AcDbLine
 10
-31.306923
 20
21.98613
 30
0.0
 11
-30.76236
 21
23.40477
 31
0.0
  0
LINE
  5
359
330
1F
100
AcDbEntity
  8
109
  6
HIDDEN2
 62
     1
100
AcDbLine
 10
-30.76236
 20
23.40477
 30
0.0
 11
-30.072487
 21
24.758713
 31
0.0
  0
LINE
  5
35A
330
1F
100
AcDbEntity
  8
109
  6
HIDDEN2
 62
     1
100
AcDbLine
 10
-30.072487
 20
24.758713
 30
0.0
 11
-29.244873
 21
26.033127
 31
0.0
  0
LINE
  5
35B
330
1F
100
AcDbEntity
  8
109
  6
HIDDEN2
 62
     1
100
AcDbLine
 10
-29.244873
 20
26.033127
 30
0.0
 11
-28.288574
 21
27.214066
 31
0.0
  0
LINE
  5
35C
330
1F
100
AcDbEntity
  8
109
  6
HIDDEN2
 62
     1
100
AcDbLine
 10
-28.288574
 20
27.214066
 30
0.0
 11
-27.214077
 21
28.288559
 31
0.0
  0
LINE
  5
35D
330
1F
100
AcDbEntity
  8
109
  6
HIDDEN2
 62
     1
100
AcDbLine
 10
-27.214077
 20
28.288559
 30
0.0
 11
-26.033154
 21
29.244858
 31
0.0
  0
LINE
  5
35E
330
1F
100
AcDbEntity
  8
109
  6
HIDDEN2
 62
     1
100
AcDbLine
 10
-26.033154
 20
29.244858
 30
0.0
 11
-24.758732
 21
30.072464
 31
0.0
  0
LINE
  5
35F
330
1F
100
AcDbEntity
  8
109
  6
HIDDEN2
 62
     1
100
AcDbLine
 10
-24.758732
 20
30.072464
 30
0.0
 11
-23.404781
 21
30.762344
 31
0.0
  0
LINE
  5
360
330
1F
100
AcDbEntity
  8
109
  6
HIDDEN2
 62
     1
100
AcDbLine
 10
-23.404781
 20
30.762344
 30
0.0
 11
-21.986141
 21
31.3069
 31
0.0
  0
LINE
  5
361
330
1F
100
AcDbEntity
  8
109
  6
HIDDEN2
 62
     1
100
AcDbLine
 10
-21.986141
 20
31.3069
 30
0.0
 11
-20.518353
 21
31.700211
 31
0.0
  0
LINE
  5
362
330
1F
100
AcDbEntity
  8
109
  6
HIDDEN2
 62
     1
100
AcDbLine
 10
-20.518353
 20
31.700211
 30
0.0
 11
-19.01749
 21
31.937912
 31
0.0
  0
LINE
  5
363
330
1F
100
AcDbEntity
  8
109
  6
HIDDEN2
 62
     1
100
AcDbLine
 10
-19.01749
 20
31.937912
 30
0.0
 11
-17.500004
 21
32.017441
 31
0.0
  0
LINE
  5
364
330
1F
100
AcDbEntity
  8
109
  6
HIDDEN2
 62
     1
100
AcDbLine
 10
1.580952
 20
-32.694412
 30
0.0
 11
6.419048
 21
-32.694412
 31
0.0
  0
LINE
  5
365
330
1F
100
AcDbEntity
  8
109
  6
HIDDEN2
 62
     1
100
AcDbLine
 10
9.580952
 20
-32.694412
 30
0.0
 11
14.419048
 21
-32.694412
 31
0.0
  0
LINE
  5
366
330
1F
100
AcDbEntity
  8
109
  6
HIDDEN2
 62
     1
100
AcDbLine
 10
17.499996
 20
-32.017471
 30
0.0
 11
19.017483
 21
-31.937943
 31
0.0
  0
LINE
  5
367
330
1F
100
AcDbEntity
  8
109
  6
HIDDEN2
 62
     1
100
AcDbLine
 10
19.017483
 20
-31.937943
 30
0.0
 11
20.518345
 21
-31.700241
 31
0.0
  0
LINE
  5
368
330
1F
100
AcDbEntity
  8
109
  6
HIDDEN2
 62
     1
100
AcDbLine
 10
20.518345
 20
-31.700241
 30
0.0
 11
21.986134
 21
-31.306931
 31
0.0
  0
LINE
  5
369
330
1F
100
AcDbEntity
  8
109
  6
HIDDEN2
 62
     1
100
AcDbLine
 10
21.986134
 20
-31.306931
 30
0.0
 11
23.404774
 21
-30.762375
 31
0.0
  0
LINE
  5
36A
330
1F
100
AcDbEntity
  8
109
  6
HIDDEN2
 62
     1
100
AcDbLine
 10
23.404774
 20
-30.762375
 30
0.0
 11
24.758724
 21
-30.072495
 31
0.0
  0
LINE
  5
36B
330
1F
100
AcDbEntity
  8
109
  6
HIDDEN2
 62
     1
100
AcDbLine
 10
24.758724
 20
-30.072495
 30
0.0
 11
26.033146
 21
-29.244888
 31
0.0
  0
LINE
  5
36C
330
1F
100
AcDbEntity
  8
109
  6
HIDDEN2
 62
     1
100
AcDbLine
 10
26.033146
 20
-29.244888
 30
0.0
 11
27.214069
 21
-28.288589
 31
0.0
  0
LINE
  5
36D
330
1F
100
AcDbEntity
  8
109
  6
HIDDEN2
 62
     1
100
AcDbLine
 10
27.214069
 20
-28.288589
 30
0.0
 11
28.28857
 21
-27.214096
 31
0.0
  0
LINE
  5
36E
330
1F
100
AcDbEntity
  8
109
  6
HIDDEN2
 62
     1
100
AcDbLine
 10
28.28857
 20
-27.214096
 30
0.0
 11
29.244862
 21
-26.033157
 31
0.0
  0
LINE
  5
36F
330
1F
100
AcDbEntity
  8
109
  6
HIDDEN2
 62
     1
100
AcDbLine
 10
29.244862
 20
-26.033157
 30
0.0
 11
30.072483
 21
-24.758743
 31
0.0
  0
LINE
  5
370
330
1F
100
AcDbEntity
  8
109
  6
HIDDEN2
 62
     1
100
AcDbLine
 10
30.072483
 20
-24.758743
 30
0.0
 11
30.762348
 21
-23.4048
 31
0.0
  0
LINE
  5
371
330
1F
100
AcDbEntity
  8
109
  6
HIDDEN2
 62
     1
100
AcDbLine
 10
30.762348
 20
-23.4048
 30
0.0
 11
31.306919
 21
-21.98616
 31
0.0
  0
LINE
  5
372
330
1F
100
AcDbEntity
  8
109
  6
HIDDEN2
 62
     1
100
AcDbLine
 10
31.306919
 20
-21.98616
 30
0.0
 11
31.700207
 21
-20.518356
 31
0.0
  0
LINE
  5
373
330
1F
100
AcDbEntity
  8
109
  6
HIDDEN2
 62
     1
100
AcDbLine
 10
31.700207
 20
-20.518356
 30
0.0
 11
31.937923
 21
-19.017502
 31
0.0
  0
LINE
  5
374
330
1F
100
AcDbEntity
  8
109
  6
HIDDEN2
 62
     1
100
AcDbLine
 10
31.937923
 20
-19.017502
 30
0.0
 11
32.017452
 21
-17.500015
 31
0.0
  0
LINE
  5
375
330
1F
100
AcDbEntity
  8
109
  6
HIDDEN2
 62
     1
100
AcDbLine
 10
17.499996
 20
-32.104752
 30
0.0
 11
18.931507
 21
-32.034409
 31
0.0
  0
LINE
  5
376
330
1F
100
AcDbEntity
  8
109
  6
HIDDEN2
 62
     1
100
AcDbLine
 10
18.931507
 20
-32.034409
 30
0.0
 11
20.349239
 21
-31.824112
 31
0.0
  0
LINE
  5
377
330
1F
100
AcDbEntity
  8
109
  6
HIDDEN2
 62
     1
100
AcDbLine
 10
20.349239
 20
-31.824112
 30
0.0
 11
21.739529
 21
-31.475876
 31
0.0
  0
LINE
  5
378
330
1F
100
AcDbEntity
  8
109
  6
HIDDEN2
 62
     1
100
AcDbLine
 10
21.739529
 20
-31.475876
 30
0.0
 11
23.088985
 21
-30.993027
 31
0.0
  0
LINE
  5
379
330
1F
100
AcDbEntity
  8
109
  6
HIDDEN2
 62
     1
100
AcDbLine
 10
23.088985
 20
-30.993027
 30
0.0
 11
24.384617
 21
-30.380234
 31
0.0
  0
LINE
  5
37A
330
1F
100
AcDbEntity
  8
109
  6
HIDDEN2
 62
     1
100
AcDbLine
 10
24.384617
 20
-30.380234
 30
0.0
 11
25.613949
 21
-29.643417
 31
0.0
  0
LINE
  5
37B
330
1F
100
AcDbEntity
  8
109
  6
HIDDEN2
 62
     1
100
AcDbLine
 10
25.613949
 20
-29.643417
 30
0.0
 11
26.765141
 21
-28.789627
 31
0.0
  0
LINE
  5
37C
330
1F
100
AcDbEntity
  8
109
  6
HIDDEN2
 62
     1
100
AcDbLine
 10
26.765141
 20
-28.789627
 30
0.0
 11
27.827099
 21
-27.827133
 31
0.0
  0
LINE
  5
37D
330
1F
100
AcDbEntity
  8
109
  6
HIDDEN2
 62
     1
100
AcDbLine
 10
27.827099
 20
-27.827133
 30
0.0
 11
28.789608
 21
-26.765152
 31
0.0
  0
LINE
  5
37E
330
1F
100
AcDbEntity
  8
109
  6
HIDDEN2
 62
     1
100
AcDbLine
 10
28.789608
 20
-26.765152
 30
0.0
 11
29.643383
 21
-25.613968
 31
0.0
  0
LINE
  5
37F
330
1F
100
AcDbEntity
  8
109
  6
HIDDEN2
 62
     1
100
AcDbLine
 10
29.643383
 20
-25.613968
 30
0.0
 11
30.380222
 21
-24.384628
 31
0.0
  0
LINE
  5
380
330
1F
100
AcDbEntity
  8
109
  6
HIDDEN2
 62
     1
100
AcDbLine
 10
30.380222
 20
-24.384628
 30
0.0
 11
30.993008
 21
-23.089005
 31
0.0
  0
LINE
  5
381
330
1F
100
AcDbEntity
  8
109
  6
HIDDEN2
 62
     1
100
AcDbLine
 10
30.993008
 20
-23.089005
 30
0.0
 11
31.475849
 21
-21.739548
 31
0.0
  0
LINE
  5
382
330
1F
100
AcDbEntity
  8
109
  6
HIDDEN2
 62
     1
100
AcDbLine
 10
31.475849
 20
-21.739548
 30
0.0
 11
31.8241
 21
-20.349258
 31
0.0
  0
LINE
  5
383
330
1F
100
AcDbEntity
  8
109
  6
HIDDEN2
 62
     1
100
AcDbLine
 10
31.8241
 20
-20.349258
 30
0.0
 11
32.034405
 21
-18.931534
 31
0.0
  0
LINE
  5
384
330
1F
100
AcDbEntity
  8
109
  6
HIDDEN2
 62
     1
100
AcDbLine
 10
32.034405
 20
-18.931534
 30
0.0
 11
32.104725
 21
-17.500015
 31
0.0
  0
LINE
  5
385
330
1F
100
AcDbEntity
  8
109
  6
HIDDEN2
 62
     1
100
AcDbLine
 10
17.580944
 20
-32.694229
 30
0.0
 11
19.017094
 21
-32.618515
 31
0.0
  0
LINE
  5
386
330
1F
100
AcDbEntity
  8
109
  6
HIDDEN2
 62
     1
100
AcDbLine
 10
19.017094
 20
-32.618515
 30
0.0
 11
20.439655
 21
-32.407364
 31
0.0
  0
LINE
  5
387
330
1F
100
AcDbEntity
  8
109
  6
HIDDEN2
 62
     1
100
AcDbLine
 10
20.439655
 20
-32.407364
 30
0.0
 11
21.835873
 21
-32.062668
 31
0.0
  0
LINE
  5
388
330
1F
100
AcDbEntity
  8
109
  6
HIDDEN2
 62
     1
100
AcDbLine
 10
24.731411
 20
-30.863297
 30
0.0
 11
25.732395
 21
-30.271011
 31
0.0
  0
LINE
  5
389
330
1F
100
AcDbEntity
  8
109
  6
HIDDEN2
 62
     1
100
AcDbLine
 10
25.732395
 20
-30.271011
 30
0.0
 11
26.685146
 21
-29.603867
 31
0.0
  0
LINE
  5
38A
330
1F
100
AcDbEntity
  8
109
  6
HIDDEN2
 62
     1
100
AcDbLine
 10
26.685146
 20
-29.603867
 30
0.0
 11
27.58408
 21
-28.865829
 31
0.0
  0
LINE
  5
38B
330
1F
100
AcDbEntity
  8
109
  6
HIDDEN2
 62
     1
100
AcDbLine
 10
28.86581
 20
-27.584091
 30
0.0
 11
29.603855
 21
-26.685165
 31
0.0
  0
LINE
  5
38C
330
1F
100
AcDbEntity
  8
109
  6
HIDDEN2
 62
     1
100
AcDbLine
 10
29.603855
 20
-26.685165
 30
0.0
 11
30.270977
 21
-25.732407
 31
0.0
  0
LINE
  5
38D
330
1F
100
AcDbEntity
  8
109
  6
HIDDEN2
 62
     1
100
AcDbLine
 10
30.270977
 20
-25.732407
 30
0.0
 11
30.86327
 21
-24.73143
 31
0.0
  0
LINE
  5
38E
330
1F
100
AcDbEntity
  8
109
  6
HIDDEN2
 62
     1
100
AcDbLine
 10
32.062641
 20
-21.835892
 30
0.0
 11
32.407337
 21
-20.439682
 31
0.0
  0
LINE
  5
38F
330
1F
100
AcDbEntity
  8
109
  6
HIDDEN2
 62
     1
100
AcDbLine
 10
32.407337
 20
-20.439682
 30
0.0
 11
32.618488
 21
-19.017105
 31
0.0
  0
LINE
  5
390
330
1F
100
AcDbEntity
  8
109
  6
HIDDEN2
 62
     1
100
AcDbLine
 10
32.618488
 20
-19.017105
 30
0.0
 11
32.694202
 21
-17.580978
 31
0.0
  0
LINE
  5
391
330
1F
100
AcDbEntity
  8
109
  6
HIDDEN2
 62
     1
100
AcDbLine
 10
32.104733
 20
-17.500015
 30
0.0
 11
32.104733
 21
17.499985
 31
0.0
  0
LINE
  5
392
330
1F
100
AcDbEntity
  8
109
  6
HIDDEN2
 62
     1
100
AcDbLine
 10
32.017452
 20
-17.500015
 30
0.0
 11
32.017452
 21
17.499985
 31
0.0
  0
LINE
  5
393
330
1F
100
AcDbEntity
  8
109
  6
HIDDEN2
 62
     1
100
AcDbLine
 10
32.694424
 20
-14.419052
 30
0.0
 11
32.694424
 21
-9.580948
 31
0.0
  0
LINE
  5
394
330
1F
100
AcDbEntity
  8
109
  6
HIDDEN2
 62
     1
100
AcDbLine
 10
32.694424
 20
-6.419052
 30
0.0
 11
32.694424
 21
-1.580948
 31
0.0
  0
LINE
  5
395
330
1F
100
AcDbEntity
  8
109
  6
HIDDEN2
 62
     1
100
AcDbLine
 10
32.694424
 20
1.580948
 30
0.0
 11
32.694424
 21
6.419052
 31
0.0
  0
LINE
  5
396
330
1F
100
AcDbEntity
  8
109
  6
HIDDEN2
 62
     1
100
AcDbLine
 10
32.694424
 20
9.580948
 30
0.0
 11
32.694424
 21
14.419052
 31
0.0
  0
LINE
  5
397
330
1F
100
AcDbEntity
  8
109
  6
HIDDEN2
 62
     1
100
AcDbLine
 10
32.017452
 20
17.499985
 30
0.0
 11
31.937923
 21
19.017471
 31
0.0
  0
LINE
  5
398
330
1F
100
AcDbEntity
  8
109
  6
HIDDEN2
 62
     1
100
AcDbLine
 10
31.937923
 20
19.017471
 30
0.0
 11
31.700207
 21
20.518326
 31
0.0
  0
LINE
  5
399
330
1F
100
AcDbEntity
  8
109
  6
HIDDEN2
 62
     1
100
AcDbLine
 10
31.700207
 20
20.518326
 30
0.0
 11
31.306919
 21
21.98613
 31
0.0
  0
LINE
  5
39A
330
1F
100
AcDbEntity
  8
109
  6
HIDDEN2
 62
     1
100
AcDbLine
 10
31.306919
 20
21.98613
 30
0.0
 11
30.762348
 21
23.40477
 31
0.0
  0
LINE
  5
39B
330
1F
100
AcDbEntity
  8
109
  6
HIDDEN2
 62
     1
100
AcDbLine
 10
30.762348
 20
23.40477
 30
0.0
 11
30.072483
 21
24.758713
 31
0.0
  0
LINE
  5
39C
330
1F
100
AcDbEntity
  8
109
  6
HIDDEN2
 62
     1
100
AcDbLine
 10
30.072483
 20
24.758713
 30
0.0
 11
29.244862
 21
26.033127
 31
0.0
  0
LINE
  5
39D
330
1F
100
AcDbEntity
  8
109
  6
HIDDEN2
 62
     1
100
AcDbLine
 10
29.244862
 20
26.033127
 30
0.0
 11
28.28857
 21
27.214066
 31
0.0
  0
LINE
  5
39E
330
1F
100
AcDbEntity
  8
109
  6
HIDDEN2
 62
     1
100
AcDbLine
 10
28.28857
 20
27.214066
 30
0.0
 11
27.214069
 21
28.288559
 31
0.0
  0
LINE
  5
39F
330
1F
100
AcDbEntity
  8
109
  6
HIDDEN2
 62
     1
100
AcDbLine
 10
27.214069
 20
28.288559
 30
0.0
 11
26.033146
 21
29.244858
 31
0.0
  0
LINE
  5
3A0
330
1F
100
AcDbEntity
  8
109
  6
HIDDEN2
 62
     1
100
AcDbLine
 10
26.033146
 20
29.244858
 30
0.0
 11
24.758724
 21
30.072464
 31
0.0
  0
LINE
  5
3A1
330
1F
100
AcDbEntity
  8
109
  6
HIDDEN2
 62
     1
100
AcDbLine
 10
24.758724
 20
30.072464
 30
0.0
 11
23.404774
 21
30.762344
 31
0.0
  0
LINE
  5
3A2
330
1F
100
AcDbEntity
  8
109
  6
HIDDEN2
 62
     1
100
AcDbLine
 10
23.404774
 20
30.762344
 30
0.0
 11
21.986134
 21
31.3069
 31
0.0
  0
LINE
  5
3A3
330
1F
100
AcDbEntity
  8
109
  6
HIDDEN2
 62
     1
100
AcDbLine
 10
21.986134
 20
31.3069
 30
0.0
 11
20.518345
 21
31.700211
 31
0.0
  0
LINE
  5
3A4
330
1F
100
AcDbEntity
  8
109
  6
HIDDEN2
 62
     1
100
AcDbLine
 10
20.518345
 20
31.700211
 30
0.0
 11
19.017483
 21
31.937912
 31
0.0
  0
LINE
  5
3A5
330
1F
100
AcDbEntity
  8
109
  6
HIDDEN2
 62
     1
100
AcDbLine
 10
19.017483
 20
31.937912
 30
0.0
 11
17.499996
 21
32.017441
 31
0.0
  0
LINE
  5
3A6
330
1F
100
AcDbEntity
  8
109
  6
HIDDEN2
 62
     1
100
AcDbLine
 10
32.104725
 20
17.499985
 30
0.0
 11
32.034405
 21
18.931503
 31
0.0
  0
LINE
  5
3A7
330
1F
100
AcDbEntity
  8
109
  6
HIDDEN2
 62
     1
100
AcDbLine
 10
32.034405
 20
18.931503
 30
0.0
 11
31.8241
 21
20.349228
 31
0.0
  0
LINE
  5
3A8
330
1F
100
AcDbEntity
  8
109
  6
HIDDEN2
 62
     1
100
AcDbLine
 10
31.8241
 20
20.349228
 30
0.0
 11
31.475849
 21
21.739517
 31
0.0
  0
LINE
  5
3A9
330
1F
100
AcDbEntity
  8
109
  6
HIDDEN2
 62
     1
100
AcDbLine
 10
31.475849
 20
21.739517
 30
0.0
 11
30.993008
 21
23.088974
 31
0.0
  0
LINE
  5
3AA
330
1F
100
AcDbEntity
  8
109
  6
HIDDEN2
 62
     1
100
AcDbLine
 10
30.993008
 20
23.088974
 30
0.0
 11
30.380222
 21
24.384598
 31
0.0
  0
LINE
  5
3AB
330
1F
100
AcDbEntity
  8
109
  6
HIDDEN2
 62
     1
100
AcDbLine
 10
30.380222
 20
24.384598
 30
0.0
 11
29.643383
 21
25.613937
 31
0.0
  0
LINE
  5
3AC
330
1F
100
AcDbEntity
  8
109
  6
HIDDEN2
 62
     1
100
AcDbLine
 10
29.643383
 20
25.613937
 30
0.0
 11
28.789608
 21
26.765121
 31
0.0
  0
LINE
  5
3AD
330
1F
100
AcDbEntity
  8
109
  6
HIDDEN2
 62
     1
100
AcDbLine
 10
28.789608
 20
26.765121
 30
0.0
 11
27.827099
 21
27.827103
 31
0.0
  0
LINE
  5
3AE
330
1F
100
AcDbEntity
  8
109
  6
HIDDEN2
 62
     1
100
AcDbLine
 10
27.827099
 20
27.827103
 30
0.0
 11
26.765141
 21
28.789597
 31
0.0
  0
LINE
  5
3AF
330
1F
100
AcDbEntity
  8
109
  6
HIDDEN2
 62
     1
100
AcDbLine
 10
26.765141
 20
28.789597
 30
0.0
 11
25.613949
 21
29.643387
 31
0.0
  0
LINE
  5
3B0
330
1F
100
AcDbEntity
  8
109
  6
HIDDEN2
 62
     1
100
AcDbLine
 10
25.613949
 20
29.643387
 30
0.0
 11
24.384617
 21
30.380203
 31
0.0
  0
LINE
  5
3B1
330
1F
100
AcDbEntity
  8
109
  6
HIDDEN2
 62
     1
100
AcDbLine
 10
24.384617
 20
30.380203
 30
0.0
 11
23.088985
 21
30.992996
 31
0.0
  0
LINE
  5
3B2
330
1F
100
AcDbEntity
  8
109
  6
HIDDEN2
 62
     1
100
AcDbLine
 10
23.088985
 20
30.992996
 30
0.0
 11
21.739529
 21
31.475845
 31
0.0
  0
LINE
  5
3B3
330
1F
100
AcDbEntity
  8
109
  6
HIDDEN2
 62
     1
100
AcDbLine
 10
21.739529
 20
31.475845
 30
0.0
 11
20.349239
 21
31.824081
 31
0.0
  0
LINE
  5
3B4
330
1F
100
AcDbEntity
  8
109
  6
HIDDEN2
 62
     1
100
AcDbLine
 10
20.349239
 20
31.824081
 30
0.0
 11
18.931507
 21
32.034378
 31
0.0
  0
LINE
  5
3B5
330
1F
100
AcDbEntity
  8
109
  6
HIDDEN2
 62
     1
100
AcDbLine
 10
18.931507
 20
32.034378
 30
0.0
 11
17.499996
 21
32.104721
 31
0.0
  0
LINE
  5
3B6
330
1F
100
AcDbEntity
  8
109
  6
HIDDEN2
 62
     1
100
AcDbLine
 10
32.694202
 20
17.580948
 30
0.0
 11
32.618488
 21
19.017075
 31
0.0
  0
LINE
  5
3B7
330
1F
100
AcDbEntity
  8
109
  6
HIDDEN2
 62
     1
100
AcDbLine
 10
32.618488
 20
19.017075
 30
0.0
 11
32.407337
 21
20.439651
 31
0.0
  0
LINE
  5
3B8
330
1F
100
AcDbEntity
  8
109
  6
HIDDEN2
 62
     1
100
AcDbLine
 10
32.407337
 20
20.439651
 30
0.0
 11
32.062641
 21
21.835861
 31
0.0
  0
LINE
  5
3B9
330
1F
100
AcDbEntity
  8
109
  6
HIDDEN2
 62
     1
100
AcDbLine
 10
30.86327
 20
24.7314
 30
0.0
 11
30.270977
 21
25.732376
 31
0.0
  0
LINE
  5
3BA
330
1F
100
AcDbEntity
  8
109
  6
HIDDEN2
 62
     1
100
AcDbLine
 10
30.270977
 20
25.732376
 30
0.0
 11
29.603855
 21
26.685135
 31
0.0
  0
LINE
  5
3BB
330
1F
100
AcDbEntity
  8
109
  6
HIDDEN2
 62
     1
100
AcDbLine
 10
29.603855
 20
26.685135
 30
0.0
 11
28.86581
 21
27.584061
 31
0.0
  0
LINE
  5
3BC
330
1F
100
AcDbEntity
  8
109
  6
HIDDEN2
 62
     1
100
AcDbLine
 10
27.58408
 20
28.865799
 30
0.0
 11
26.685146
 21
29.603836
 31
0.0
  0
LINE
  5
3BD
330
1F
100
AcDbEntity
  8
109
  6
HIDDEN2
 62
     1
100
AcDbLine
 10
26.685146
 20
29.603836
 30
0.0
 11
25.732395
 21
30.270981
 31
0.0
  0
LINE
  5
3BE
330
1F
100
AcDbEntity
  8
109
  6
HIDDEN2
 62
     1
100
AcDbLine
 10
25.732395
 20
30.270981
 30
0.0
 11
24.731411
 21
30.863266
 31
0.0
  0
LINE
  5
3BF
330
1F
100
AcDbEntity
  8
109
  6
HIDDEN2
 62
     1
100
AcDbLine
 10
21.835873
 20
32.062637
 30
0.0
 11
20.439655
 21
32.407333
 31
0.0
  0
LINE
  5
3C0
330
1F
100
AcDbEntity
  8
109
  6
HIDDEN2
 62
     1
100
AcDbLine
 10
20.439655
 20
32.407333
 30
0.0
 11
19.017094
 21
32.618484
 31
0.0
  0
LINE
  5
3C1
330
1F
100
AcDbEntity
  8
109
  6
HIDDEN2
 62
     1
100
AcDbLine
 10
19.017094
 20
32.618484
 30
0.0
 11
17.580944
 21
32.694199
 31
0.0
  0
LINE
  5
3C2
330
1F
100
AcDbEntity
  8
109
  6
HIDDEN2
 62
     1
100
AcDbLine
 10
14.419048
 20
32.694412
 30
0.0
 11
9.580952
 21
32.694412
 31
0.0
  0
LINE
  5
3C3
330
1F
100
AcDbEntity
  8
109
  6
HIDDEN2
 62
     1
100
AcDbLine
 10
6.419048
 20
32.694412
 30
0.0
 11
1.580952
 21
32.694412
 31
0.0
  0
LINE
  5
3C4
330
1F
100
AcDbEntity
  8
109
  6
HIDDEN2
 62
     1
100
AcDbLine
 10
30.86327
 20
24.7314
 30
0.0
 11
30.408108
 21
24.468613
 31
0.0
  0
LINE
  5
3C5
330
1F
100
AcDbEntity
  8
109
  6
HIDDEN2
 62
     1
100
AcDbLine
 10
30.408108
 20
24.468613
 30
0.0
 11
31.052433
 21
23.113602
 31
0.0
  0
LINE
  5
3C6
330
1F
100
AcDbEntity
  8
109
  6
HIDDEN2
 62
     1
100
AcDbLine
 10
31.052433
 20
23.113602
 30
0.0
 11
31.554966
 21
21.699844
 31
0.0
  0
LINE
  5
3C7
330
1F
100
AcDbEntity
  8
109
  6
HIDDEN2
 62
     1
100
AcDbLine
 10
31.554974
 20
21.699844
 30
0.0
 11
32.062641
 21
21.835861
 31
0.0
  0
LINE
  5
3C8
330
1F
100
AcDbEntity
  8
109
  6
HIDDEN2
 62
     1
100
AcDbLine
 10
32.694202
 20
17.580948
 30
0.0
 11
32.168827
 21
17.580948
 31
0.0
  0
LINE
  5
3C9
330
1F
100
AcDbEntity
  8
109
  6
HIDDEN2
 62
     1
100
AcDbLine
 10
32.168819
 20
17.580948
 30
0.0
 11
32.169048
 21
17.499985
 31
0.0
  0
LINE
  5
3CA
330
1F
100
AcDbEntity
  8
109
  6
HIDDEN2
 62
     1
100
AcDbLine
 10
32.169048
 20
17.499985
 30
0.0
 11
32.169048
 21
14.419052
 31
0.0
  0
LINE
  5
3CB
330
1F
100
AcDbEntity
  8
109
  6
HIDDEN2
 62
     1
100
AcDbLine
 10
32.169048
 20
14.419052
 30
0.0
 11
32.694424
 21
14.419052
 31
0.0
  0
LINE
  5
3CC
330
1F
100
AcDbEntity
  8
109
  6
HIDDEN2
 62
     1
100
AcDbLine
 10
32.694424
 20
9.580948
 30
0.0
 11
32.169048
 21
9.580948
 31
0.0
  0
LINE
  5
3CD
330
1F
100
AcDbEntity
  8
109
  6
HIDDEN2
 62
     1
100
AcDbLine
 10
32.169048
 20
9.580948
 30
0.0
 11
32.169048
 21
6.419052
 31
0.0
  0
LINE
  5
3CE
330
1F
100
AcDbEntity
  8
109
  6
HIDDEN2
 62
     1
100
AcDbLine
 10
32.169048
 20
6.419052
 30
0.0
 11
32.694424
 21
6.419052
 31
0.0
  0
LINE
  5
3CF
330
1F
100
AcDbEntity
  8
109
  6
HIDDEN2
 62
     1
100
AcDbLine
 10
32.694424
 20
1.580948
 30
0.0
 11
32.169048
 21
1.580948
 31
0.0
  0
LINE
  5
3D0
330
1F
100
AcDbEntity
  8
109
  6
HIDDEN2
 62
     1
100
AcDbLine
 10
32.169048
 20
1.580948
 30
0.0
 11
32.169048
 21
-1.580948
 31
0.0
  0
LINE
  5
3D1
330
1F
100
AcDbEntity
  8
109
  6
HIDDEN2
 62
     1
100
AcDbLine
 10
32.169048
 20
-1.580948
 30
0.0
 11
32.694424
 21
-1.580948
 31
0.0
  0
LINE
  5
3D2
330
1F
100
AcDbEntity
  8
109
  6
HIDDEN2
 62
     1
100
AcDbLine
 10
32.694424
 20
-6.419052
 30
0.0
 11
32.169048
 21
-6.419052
 31
0.0
  0
LINE
  5
3D3
330
1F
100
AcDbEntity
  8
109
  6
HIDDEN2
 62
     1
100
AcDbLine
 10
32.169048
 20
-6.419052
 30
0.0
 11
32.169048
 21
-9.580948
 31
0.0
  0
LINE
  5
3D4
330
1F
100
AcDbEntity
  8
109
  6
HIDDEN2
 62
     1
100
AcDbLine
 10
32.169048
 20
-9.580948
 30
0.0
 11
32.694424
 21
-9.580948
 31
0.0
  0
LINE
  5
3D5
330
1F
100
AcDbEntity
  8
109
  6
HIDDEN2
 62
     1
100
AcDbLine
 10
32.694424
 20
-14.419052
 30
0.0
 11
32.169048
 21
-14.419052
 31
0.0
  0
LINE
  5
3D6
330
1F
100
AcDbEntity
  8
109
  6
HIDDEN2
 62
     1
100
AcDbLine
 10
32.169048
 20
-14.419052
 30
0.0
 11
32.169048
 21
-17.500015
 31
0.0
  0
LINE
  5
3D7
330
1F
100
AcDbEntity
  8
109
  6
HIDDEN2
 62
     1
100
AcDbLine
 10
32.169048
 20
-17.500015
 30
0.0
 11
32.168819
 21
-17.580978
 31
0.0
  0
LINE
  5
3D8
330
1F
100
AcDbEntity
  8
109
  6
HIDDEN2
 62
     1
100
AcDbLine
 10
32.168827
 20
-17.580948
 30
0.0
 11
32.694202
 21
-17.580948
 31
0.0
  0
LINE
  5
3D9
330
1F
100
AcDbEntity
  8
109
  6
HIDDEN2
 62
     1
100
AcDbLine
 10
32.062641
 20
-21.835892
 30
0.0
 11
31.554974
 21
-21.699844
 31
0.0
  0
LINE
  5
3DA
330
1F
100
AcDbEntity
  8
109
  6
HIDDEN2
 62
     1
100
AcDbLine
 10
31.554966
 20
-21.699875
 30
0.0
 11
31.052433
 21
-23.113632
 31
0.0
  0
LINE
  5
3DB
330
1F
100
AcDbEntity
  8
109
  6
HIDDEN2
 62
     1
100
AcDbLine
 10
31.052433
 20
-23.113632
 30
0.0
 11
30.408108
 21
-24.468643
 31
0.0
  0
LINE
  5
3DC
330
1F
100
AcDbEntity
  8
109
  6
HIDDEN2
 62
     1
100
AcDbLine
 10
30.408108
 20
-24.468613
 30
0.0
 11
30.86327
 21
-24.73143
 31
0.0
  0
LINE
  5
3DD
330
1F
100
AcDbEntity
  8
109
  6
HIDDEN2
 62
     1
100
AcDbLine
 10
28.865818
 20
-27.584091
 30
0.0
 11
28.4632
 21
-27.246262
 31
0.0
  0
LINE
  5
3DE
330
1F
100
AcDbEntity
  8
109
  6
HIDDEN2
 62
     1
100
AcDbLine
 10
28.463192
 20
-27.246262
 30
0.0
 11
27.872578
 21
-27.872604
 31
0.0
  0
LINE
  5
3DF
330
1F
100
AcDbEntity
  8
109
  6
HIDDEN2
 62
     1
100
AcDbLine
 10
27.872578
 20
-27.872604
 30
0.0
 11
27.246243
 21
-28.463211
 31
0.0
  0
LINE
  5
3E0
330
1F
100
AcDbEntity
  8
109
  6
HIDDEN2
 62
     1
100
AcDbLine
 10
27.246243
 20
-28.463211
 30
0.0
 11
27.58408
 21
-28.865829
 31
0.0
  0
LINE
  5
3E1
330
1F
100
AcDbEntity
  8
109
  6
HIDDEN2
 62
     1
100
AcDbLine
 10
24.731411
 20
-30.863266
 30
0.0
 11
24.468624
 21
-30.408127
 31
0.0
  0
LINE
  5
3E2
330
1F
100
AcDbEntity
  8
109
  6
HIDDEN2
 62
     1
100
AcDbLine
 10
24.468616
 20
-30.408127
 30
0.0
 11
23.113598
 21
-31.052444
 31
0.0
  0
LINE
  5
3E3
330
1F
100
AcDbEntity
  8
109
  6
HIDDEN2
 62
     1
100
AcDbLine
 10
23.113598
 20
-31.052444
 30
0.0
 11
21.699848
 21
-31.554977
 31
0.0
  0
LINE
  5
3E4
330
1F
100
AcDbEntity
  8
109
  6
HIDDEN2
 62
     1
100
AcDbLine
 10
21.699848
 20
-31.554977
 30
0.0
 11
21.83588
 21
-32.062637
 31
0.0
  0
LINE
  5
3E5
330
1F
100
AcDbEntity
  8
109
  6
HIDDEN2
 62
     1
100
AcDbLine
 10
17.580952
 20
-32.694199
 30
0.0
 11
17.580952
 21
-32.168839
 31
0.0
  0
LINE
  5
3E6
330
1F
100
AcDbEntity
  8
109
  6
HIDDEN2
 62
     1
100
AcDbLine
 10
17.580944
 20
-32.168839
 30
0.0
 11
17.499996
 21
-32.169052
 31
0.0
  0
LINE
  5
3E7
330
1F
100
AcDbEntity
  8
109
  6
HIDDEN2
 62
     1
100
AcDbLine
 10
17.499996
 20
-32.169052
 30
0.0
 11
14.419048
 21
-32.169052
 31
0.0
  0
LINE
  5
3E8
330
1F
100
AcDbEntity
  8
109
  6
HIDDEN2
 62
     1
100
AcDbLine
 10
14.419048
 20
-32.169052
 30
0.0
 11
14.419048
 21
-32.694412
 31
0.0
  0
LINE
  5
3E9
330
1F
100
AcDbEntity
  8
109
  6
HIDDEN2
 62
     1
100
AcDbLine
 10
9.580952
 20
-32.694412
 30
0.0
 11
9.580952
 21
-32.169052
 31
0.0
  0
LINE
  5
3EA
330
1F
100
AcDbEntity
  8
109
  6
HIDDEN2
 62
     1
100
AcDbLine
 10
9.580952
 20
-32.169052
 30
0.0
 11
6.419048
 21
-32.169052
 31
0.0
  0
LINE
  5
3EB
330
1F
100
AcDbEntity
  8
109
  6
HIDDEN2
 62
     1
100
AcDbLine
 10
6.419048
 20
-32.169052
 30
0.0
 11
6.419048
 21
-32.694412
 31
0.0
  0
LINE
  5
3EC
330
1F
100
AcDbEntity
  8
109
  6
HIDDEN2
 62
     1
100
AcDbLine
 10
1.580952
 20
-32.694412
 30
0.0
 11
1.580952
 21
-32.169052
 31
0.0
  0
LINE
  5
3ED
330
1F
100
AcDbEntity
  8
109
  6
HIDDEN2
 62
     1
100
AcDbLine
 10
1.580952
 20
32.169052
 30
0.0
 11
1.580952
 21
32.694412
 31
0.0
  0
LINE
  5
3EE
330
1F
100
AcDbEntity
  8
109
  6
HIDDEN2
 62
     1
100
AcDbLine
 10
6.419048
 20
32.694412
 30
0.0
 11
6.419048
 21
32.169052
 31
0.0
  0
LINE
  5
3EF
330
1F
100
AcDbEntity
  8
109
  6
HIDDEN2
 62
     1
100
AcDbLine
 10
6.419048
 20
32.169052
 30
0.0
 11
9.580952
 21
32.169052
 31
0.0
  0
LINE
  5
3F0
330
1F
100
AcDbEntity
  8
109
  6
HIDDEN2
 62
     1
100
AcDbLine
 10
9.580952
 20
32.169052
 30
0.0
 11
9.580952
 21
32.694412
 31
0.0
  0
LINE
  5
3F1
330
1F
100
AcDbEntity
  8
109
  6
HIDDEN2
 62
     1
100
AcDbLine
 10
14.419048
 20
32.694412
 30
0.0
 11
14.419048
 21
32.169052
 31
0.0
  0
LINE
  5
3F2
330
1F
100
AcDbEntity
  8
109
  6
HIDDEN2
 62
     1
100
AcDbLine
 10
14.419048
 20
32.169052
 30
0.0
 11
17.500004
 21
32.169052
 31
0.0
  0
LINE
  5
3F3
330
1F
100
AcDbEntity
  8
109
  6
HIDDEN2
 62
     1
100
AcDbLine
 10
17.499996
 20
32.169022
 30
0.0
 11
17.580944
 21
32.168808
 31
0.0
  0
LINE
  5
3F4
330
1F
100
AcDbEntity
  8
109
  6
HIDDEN2
 62
     1
100
AcDbLine
 10
17.580952
 20
32.168808
 30
0.0
 11
17.580952
 21
32.694199
 31
0.0
  0
LINE
  5
3F5
330
1F
100
AcDbEntity
  8
109
  6
HIDDEN2
 62
     1
100
AcDbLine
 10
21.83588
 20
32.062637
 30
0.0
 11
21.699848
 21
31.554977
 31
0.0
  0
LINE
  5
3F6
330
1F
100
AcDbEntity
  8
109
  6
HIDDEN2
 62
     1
100
AcDbLine
 10
21.699848
 20
31.554947
 30
0.0
 11
23.113598
 21
31.052414
 31
0.0
  0
LINE
  5
3F7
330
1F
100
AcDbEntity
  8
109
  6
HIDDEN2
 62
     1
100
AcDbLine
 10
23.113598
 20
31.052414
 30
0.0
 11
24.468616
 21
30.408096
 31
0.0
  0
LINE
  5
3F8
330
1F
100
AcDbEntity
  8
109
  6
HIDDEN2
 62
     1
100
AcDbLine
 10
24.468624
 20
30.408096
 30
0.0
 11
24.731411
 21
30.863266
 31
0.0
  0
LINE
  5
3F9
330
1F
100
AcDbEntity
  8
109
  6
HIDDEN2
 62
     1
100
AcDbLine
 10
27.58408
 20
28.865799
 30
0.0
 11
27.246243
 21
28.463181
 31
0.0
  0
LINE
  5
3FA
330
1F
100
AcDbEntity
  8
109
  6
HIDDEN2
 62
     1
100
AcDbLine
 10
27.246243
 20
28.463181
 30
0.0
 11
27.872578
 21
27.872574
 31
0.0
  0
LINE
  5
3FB
330
1F
100
AcDbEntity
  8
109
  6
HIDDEN2
 62
     1
100
AcDbLine
 10
27.872578
 20
27.872574
 30
0.0
 11
28.463192
 21
27.246231
 31
0.0
  0
LINE
  5
3FC
330
1F
100
AcDbEntity
  8
109
  6
HIDDEN2
 62
     1
100
AcDbLine
 10
28.4632
 20
27.246231
 30
0.0
 11
28.865818
 21
27.584091
 31
0.0
  0
LINE
  5
3FD
330
1F
100
AcDbEntity
  8
109
  6
HIDDEN2
 62
     1
100
AcDbLine
 10
-1.580952
 20
32.169052
 30
0.0
 11
1.580952
 21
32.169052
 31
0.0
  0
LINE
  5
3FE
330
1F
100
AcDbEntity
  8
109
  6
HIDDEN2
 62
     1
100
AcDbLine
 10
-1.580952
 20
-32.169052
 30
0.0
 11
1.580952
 21
-32.169052
 31
0.0
  0
LINE
  5
3FF
330
1F
100
AcDbEntity
  8
109
  6
HIDDEN2
 62
     1
100
AcDbLine
 10
-17.500004
 20
32.104721
 30
0.0
 11
17.500004
 21
32.104721
 31
0.0
  0
LINE
  5
400
330
1F
100
AcDbEntity
  8
109
  6
HIDDEN2
 62
     1
100
AcDbLine
 10
-17.500004
 20
-32.104721
 30
0.0
 11
17.499996
 21
-32.104721
 31
0.0
  0
LINE
  5
401
330
1F
100
AcDbEntity
  8
109
  6
HIDDEN2
 62
     1
100
AcDbLine
 10
-17.500004
 20
32.017441
 30
0.0
 11
17.500004
 21
32.017441
 31
0.0
  0
LINE
  5
402
330
1F
100
AcDbEntity
  8
109
  6
HIDDEN2
 62
     1
100
AcDbLine
 10
-17.500004
 20
-32.017471
 30
0.0
 11
17.499996
 21
-32.017471
 31
0.0
  0
LINE
  5
403
330
1F
100
AcDbEntity
  8
109
  6
HIDDEN2
 62
     1
100
AcDbLine
 10
-24.582623
 20
25.082535
 30
0.0
 11
24.582623
 21
25.082535
 31
0.0
  0
LINE
  5
404
330
1F
100
AcDbEntity
  8
109
  6
HIDDEN2
 62
     1
100
AcDbLine
 10
25.082546
 20
-24.582626
 30
0.0
 11
25.082546
 21
24.582626
 31
0.0
  0
LINE
  5
405
330
1F
100
AcDbEntity
  8
109
  6
HIDDEN2
 62
     1
100
AcDbLine
 10
-25.082546
 20
-24.582626
 30
0.0
 11
-25.082546
 21
24.582626
 31
0.0
  0
LINE
  5
406
330
1F
100
AcDbEntity
  8
109
  6
HIDDEN2
 62
     1
100
AcDbLine
 10
-24.582623
 20
-25.082535
 30
0.0
 11
24.582623
 21
-25.082535
 31
0.0
  0
LINE
  5
407
330
1F
100
AcDbEntity
  8
109
  6
HIDDEN2
 62
     1
100
AcDbLine
 10
-25.082546
 20
24.582626
 30
0.0
 11
-25.015575
 21
24.832596
 31
0.0
  0
LINE
  5
408
330
1F
100
AcDbEntity
  8
109
  6
HIDDEN2
 62
     1
100
AcDbLine
 10
-25.015575
 20
24.832596
 30
0.0
 11
-24.8326
 21
25.015579
 31
0.0
  0
LINE
  5
409
330
1F
100
AcDbEntity
  8
109
  6
HIDDEN2
 62
     1
100
AcDbLine
 10
-24.8326
 20
25.015579
 30
0.0
 11
-24.582623
 21
25.082535
 31
0.0
  0
LINE
  5
40A
330
1F
100
AcDbEntity
  8
109
  6
HIDDEN2
 62
     1
100
AcDbLine
 10
25.082546
 20
24.582626
 30
0.0
 11
25.015575
 21
24.832596
 31
0.0
  0
LINE
  5
40B
330
1F
100
AcDbEntity
  8
109
  6
HIDDEN2
 62
     1
100
AcDbLine
 10
25.015575
 20
24.832596
 30
0.0
 11
24.8326
 21
25.015579
 31
0.0
  0
LINE
  5
40C
330
1F
100
AcDbEntity
  8
109
  6
HIDDEN2
 62
     1
100
AcDbLine
 10
24.8326
 20
25.015579
 30
0.0
 11
24.582623
 21
25.082535
 31
0.0
  0
LINE
  5
40D
330
1F
100
AcDbEntity
  8
109
  6
HIDDEN2
 62
     1
100
AcDbLine
 10
25.082546
 20
-24.582626
 30
0.0
 11
25.015575
 21
-24.832596
 31
0.0
  0
LINE
  5
40E
330
1F
100
AcDbEntity
  8
109
  6
HIDDEN2
 62
     1
100
AcDbLine
 10
25.015575
 20
-24.832596
 30
0.0
 11
24.8326
 21
-25.015579
 31
0.0
  0
LINE
  5
40F
330
1F
100
AcDbEntity
  8
109
  6
HIDDEN2
 62
     1
100
AcDbLine
 10
24.8326
 20
-25.015579
 30
0.0
 11
24.582623
 21
-25.082535
 31
0.0
  0
LINE
  5
410
330
1F
100
AcDbEntity
  8
109
  6
HIDDEN2
 62
     1
100
AcDbLine
 10
-25.082546
 20
-24.582626
 30
0.0
 11
-25.015575
 21
-24.832596
 31
0.0
  0
LINE
  5
411
330
1F
100
AcDbEntity
  8
109
  6
HIDDEN2
 62
     1
100
AcDbLine
 10
-25.015575
 20
-24.832596
 30
0.0
 11
-24.8326
 21
-25.015579
 31
0.0
  0
LINE
  5
412
330
1F
100
AcDbEntity
  8
109
  6
HIDDEN2
 62
     1
100
AcDbLine
 10
-24.8326
 20
-25.015579
 30
0.0
 11
-24.582623
 21
-25.082535
 31
0.0
  0
LINE
  5
413
330
1F
100
AcDbEntity
  8
109
  6
HIDDEN2
 62
     1
100
AcDbLine
 10
250.0
 20
25.0
 30
0.0
 11
252.0
 21
25.0
 31
0.0
  0
LINE
  5
414
330
1F
100
AcDbEntity
  8
109
  6
HIDDEN2
 62
     1
100
AcDbLine
 10
250.0
 20
-25.0
 30
0.0
 11
252.0
 21
-25.0
 31
0.0
  0
LINE
  5
415
330
1F
100
AcDbEntity
  8
109
  6
HIDDEN2
 62
     1
100
AcDbLine
 10
25.0
 20
-250.0
 30
0.0
 11
25.0
 21
-252.0
 31
0.0
  0
LINE
  5
416
330
1F
100
AcDbEntity
  8
109
  6
HIDDEN2
 62
     1
100
AcDbLine
 10
25.082544
 20
-250.000001
 30
0.0
 11
24.803264
 21
-234.000001
 31
0.0
  0
LINE
  5
417
330
1F
100
AcDbEntity
  8
109
  6
HIDDEN2
 62
     1
100
AcDbLine
 10
24.803264
 20
-234.000001
 30
0.0
 11
-24.803264
 21
-233.999999
 31
0.0
  0
LINE
  5
418
330
1F
100
AcDbEntity
  8
109
  6
HIDDEN2
 62
     1
100
AcDbLine
 10
-25.082545
 20
-249.999999
 30
0.0
 11
-24.803264
 21
-233.999999
 31
0.0
  0
LINE
  5
419
330
1F
100
AcDbEntity
  8
109
  6
HIDDEN2
 62
     1
100
AcDbLine
 10
-25.0
 20
-250.0
 30
0.0
 11
-25.0
 21
-252.0
 31
0.0
  0
MTEXT
  5
41A
330
1F
100
AcDbEntity
  8
109
  6
CONTINUOUS
 62
     7
100
AcDbMText
 10
125.0
 20
-185.0
 30
0.0
 40
5.0
 41
0.0
 71
     7
 72
     1
  1
Einlassmuschel^M\P42425300000-0
  7
FSB
1001
ACAD
1000
MTEXTBEGIN
1070
    73
1070
     2
1070
    44
1040
0.839983
1000
MTEXTEND
  0
LINE
  5
41B
330
1F
100
AcDbEntity
  8
109
  6
CONTINUOUS
 62
     7
100
AcDbLine
 10
-34.999996
 20
-252.0
 30
0.0
 11
35.000004
 21
-252.0
 31
0.0
  0
LINE
  5
41C
330
1F
100
AcDbEntity
  8
109
  6
CONTINUOUS
 62
     7
100
AcDbLine
 10
35.000004
 20
-250.0
 30
0.0
 11
-34.999996
 21
-250.0
 31
0.0
  0
LINE
  5
41D
330
1F
100
AcDbEntity
  8
109
  6
CONTINUOUS
 62
     7
100
AcDbLine
 10
32.694209
 20
-244.999999
 30
0.0
 11
-32.694201
 21
-244.999999
 31
0.0
  0
LINE
  5
41E
330
1F
100
AcDbEntity
  8
109
  6
CONTINUOUS
 62
     7
100
AcDbLine
 10
31.749943
 20
-232.999999
 30
0.0
 11
-31.749935
 21
-232.999999
 31
0.0
  0
LINE
  5
41F
330
1F
100
AcDbEntity
  8
109
  6
CONTINUOUS
 62
     7
100
AcDbLine
 10
233.0
 20
-31.74997
 30
0.0
 11
233.0
 21
31.749909
 31
0.0
  0
LINE
  5
420
330
1F
100
AcDbEntity
  8
109
  6
CONTINUOUS
 62
     7
100
AcDbLine
 10
244.999999
 20
-31.555003
 30
0.0
 11
244.999999
 21
-28.865845
 31
0.0
  0
LINE
  5
421
330
1F
100
AcDbEntity
  8
109
  6
CONTINUOUS
 62
     7
100
AcDbLine
 10
244.999999
 20
-28.463228
 30
0.0
 11
244.999999
 21
-24.731444
 31
0.0
  0
LINE
  5
422
330
1F
100
AcDbEntity
  8
109
  6
CONTINUOUS
 62
     7
100
AcDbLine
 10
244.999999
 20
-24.468654
 30
0.0
 11
244.999999
 21
24.468594
 31
0.0
  0
LINE
  5
423
330
1F
100
AcDbEntity
  8
109
  6
CONTINUOUS
 62
     7
100
AcDbLine
 10
244.999999
 20
24.731383
 30
0.0
 11
244.999999
 21
28.463167
 31
0.0
  0
LINE
  5
424
330
1F
100
AcDbEntity
  8
109
  6
CONTINUOUS
 62
     7
100
AcDbLine
 10
244.999999
 20
28.865784
 30
0.0
 11
244.999999
 21
31.554942
 31
0.0
  0
LINE
  5
425
330
1F
100
AcDbEntity
  8
109
  6
CONTINUOUS
 62
     7
100
AcDbLine
 10
250.0
 20
34.99997
 30
0.0
 11
250.0
 21
-35.00003
 31
0.0
  0
LINE
  5
426
330
1F
100
AcDbEntity
  8
109
  6
CONTINUOUS
 62
     7
100
AcDbLine
 10
252.0
 20
-35.00003
 30
0.0
 11
252.0
 21
34.99997
 31
0.0
  0
ENDSEC
  0
SECTION
  2
OBJECTS
  0
DICTIONARY
  5
C
330
0
100
AcDbDictionary
  3
ACAD_GROUP
350
D
  3
ACAD_LAYOUT
350
1A
  3
ACAD_MLEADERSTYLE
350
449
  3
ACAD_MLINESTYLE
350
17
  3
ACAD_PLOTSETTINGS
350
19
  3
ACAD_SCALELIST
350
48
  3
ACAD_VISUALSTYLE
350
2A
  3
ACDBHEADERROUNDTRIPXREC
350
427
  3
ACDBVARIABLEDICTIONARY
350
447
  0
DICTIONARY
  5
D
102
{ACAD_REACTORS
330
C
102
}
330
C
100
AcDbDictionary
  0
DICTIONARY
  5
1A
102
{ACAD_REACTORS
330
C
102
}
330
C
100
AcDbDictionary
  0
DICTIONARY
  5
449
102
{ACAD_REACTORS
330
C
102
}
330
C
100
AcDbDictionary
  0
DICTIONARY
  5
17
102
{ACAD_REACTORS
330
C
102
}
330
C
100
AcDbDictionary
  3
STANDARD
350
18
  0
DICTIONARY
  5
19
102
{ACAD_REACTORS
330
C
102
}
330
C
100
AcDbDictionary
  0
DICTIONARY
  5
48
102
{ACAD_REACTORS
330
C
102
}
330
C
100
AcDbDictionary
  3
A0
350
49
  3
A1
350
4A
  3
A2
350
4B
  3
A3
350
4C
  3
A4
350
4D
  3
A5
350
4E
  3
A6
350
4F
  3
A7
350
50
  3
A8
350
51
  3
A9
350
52
  3
B0
350
53
  3
B1
350
54
  3
B2
350
55
  3
B3
350
56
  3
B4
350
57
  3
B5
350
58
  3
B6
350
59
  3
B7
350
5A
  3
B8
350
5B
  3
B9
350
5C
  3
C0
350
5D
  3
C1
350
5E
  3
C2
350
5F
  3
C3
350
60
  3
C4
350
61
  3
C5
350
62
  3
C6
350
63
  3
C7
350
64
  3
C8
350
65
  3
C9
350
66
  3
D0
350
67
  3
D1
350
68
  3
D2
350
69
  0
DICTIONARY
  5
2A
102
{ACAD_REACTORS
330
C
102
}
330
C
100
AcDbDictionary
  3
2DWIREFRAME
350
2F
  3
3D_HIDDEN
350
31
  3
3DWIREFRAME
350
30
  3
BASIC
350
32
  3
BRIGHTEN
350
36
  3
COLORCHANGE
350
3A
  3
CONCEPTUAL
350
34
  3
DIM
350
35
  3
FACEPATTERN
350
39
  3
FLAT
350
2B
  3
FLATWITHEDGES
350
2C
  3
GOURAUD
350
2D
  3
GOURAUDWITHEDGES
350
2E
  3
LINEPATTERN
350
38
  3
REALISTIC
350
33
  3
THICKEN
350
37
  0
DICTIONARY
  5
427
102
{ACAD_REACTORS
330
C
102
}
330
C
100
AcDbDictionary
  3
CEPSNTYPE
350
430
  3
DIMSTYLEDATA
350
446
  3
FINGERPRINTGUID
350
431
  3
HYPERLINKBASE
350
42A
  3
INSUNITS
350
42F
  3
LAYOUTDICT
350
42C
  3
LWETCUNION
350
42E
  3
PLOTSETDICT
350
42D
  3
PSVPSCALE
350
433
  3
PUCSBASE
350
436
  3
PUCSORGBACK
350
43C
  3
PUCSORGBOTTOM
350
438
  3
PUCSORGFRONT
350
43B
  3
PUCSORGLEFT
350
439
  3
PUCSORGRIGHT
350
43A
  3
PUCSORGTOP
350
437
  3
PUCSORTHOREF
350
434
  3
PUCSORTHOVIEW
350
435
  3
STYLESHEET
350
42B
  3
TSTACKALIGN
350
428
  3
TSTACKSIZE
350
429
  3
UCSBASE
350
43F
  3
UCSORGBACK
350
445
  3
UCSORGBOTTOM
350
441
  3
UCSORGFRONT
350
444
  3
UCSORGLEFT
350
442
  3
UCSORGRIGHT
350
443
  3
UCSORGTOP
350
440
  3
UCSORTHOREF
350
43D
  3
UCSORTHOVIEW
350
43E
  3
VERSIONGUID
350
432
  0
DICTIONARY
  5
447
102
{ACAD_REACTORS
330
C
102
}
330
C
100
AcDbDictionary
  3
CANNOSCALE
350
44C
  3
PSOLHEIGHT
350
44B
  3
PSOLWIDTH
350
44A
  0
MLINESTYLE
  5
18
102
{ACAD_REACTORS
330
17
102
}
330
17
100
AcDbMlineStyle
  2
Standard
 70
     0
  3

 62
   256
 51
90.0
 52
90.0
 71
     2
 49
0.5
 62
   256
  6
BYLAYER
 49
-0.5
 62
   256
  6
BYLAYER
  0
ACAD_PROXY_OBJECT
  5
49
102
{ACAD_REACTORS
330
48
102
}
330
48
100
AcDbProxyObject
 90
      499
 91
      502
 93
       41
310
903313A31580
  0
ACAD_PROXY_OBJECT
  5
4A
102
{ACAD_REACTORS
330
48
102
}
330
48
100
AcDbProxyObject
 90
      499
 91
      502
 93
      105
310
903313A324000000000000004000
  0
ACAD_PROXY_OBJECT
  5
4B
102
{ACAD_REACTORS
330
48
102
}
330
48
100
AcDbProxyObject
 90
      499
 91
      502
 93
      105
310
903313A344000000000000104000
  0
ACAD_PROXY_OBJECT
  5
4C
102
{ACAD_REACTORS
330
48
102
}
330
48
100
AcDbProxyObject
 90
      499
 91
      502
 93
      105
310
903313A354000000000000144000
  0
ACAD_PROXY_OBJECT
  5
4D
102
{ACAD_REACTORS
330
48
102
}
330
48
100
AcDbProxyObject
 90
      499
 91
      502
 93
      105
310
903313A384000000000000204000
  0
ACAD_PROXY_OBJECT
  5
4E
102
{ACAD_REACTORS
330
48
102
}
330
48
100
AcDbProxyObject
 90
      499
 91
      502
 93
      113
310
904313A31304000000000000244000
  0
ACAD_PROXY_OBJECT
  5
4F
102
{ACAD_REACTORS
330
48
102
}
330
48
100
AcDbProxyObject
 90
      499
 91
      502
 93
      113
310
904313A31364000000000000304000
  0
ACAD_PROXY_OBJECT
  5
50
102
{ACAD_REACTORS
330
48
102
}
330
48
100
AcDbProxyObject
 90
      499
 91
      502
 93
      113
310
904313A32304000000000000344000
  0
ACAD_PROXY_OBJECT
  5
51
102
{ACAD_REACTORS
330
48
102
}
330
48
100
AcDbProxyObject
 90
      499
 91
      502
 93
      113
310
904313A333040000000000003E4000
  0
ACAD_PROXY_OBJECT
  5
52
102
{ACAD_REACTORS
330
48
102
}
330
48
100
AcDbProxyObject
 90
      499
 91
      502
 93
      113
310
904313A34304000000000000444000
  0
ACAD_PROXY_OBJECT
  5
53
102
{ACAD_REACTORS
330
48
102
}
330
48
100
AcDbProxyObject
 90
      499
 91
      502
 93
      113
310
904313A35304000000000000494000
  0
ACAD_PROXY_OBJECT
  5
54
102
{ACAD_REACTORS
330
48
102
}
330
48
100
AcDbProxyObject
 90
      499
 91
      502
 93
      121
310
905313A3130304000000000000594000
  0
ACAD_PROXY_OBJECT
  5
55
102
{ACAD_REACTORS
330
48
102
}
330
48
100
AcDbProxyObject
 90
      499
 91
      502
 93
      105
310
903323A310000000000000010100
  0
ACAD_PROXY_OBJECT
  5
56
102
{ACAD_REACTORS
330
48
102
}
330
48
100
AcDbProxyObject
 90
      499
 91
      502
 93
      105
310
903343A310000000000000410100
  0
ACAD_PROXY_OBJECT
  5
57
102
{ACAD_REACTORS
330
48
102
}
330
48
100
AcDbProxyObject
 90
      499
 91
      502
 93
      105
310
903383A310000000000000810100
  0
ACAD_PROXY_OBJECT
  5
58
102
{ACAD_REACTORS
330
48
102
}
330
48
100
AcDbProxyObject
 90
      499
 91
      502
 93
      113
310
90431303A310000000000000910100
  0
ACAD_PROXY_OBJECT
  5
59
102
{ACAD_REACTORS
330
48
102
}
330
48
100
AcDbProxyObject
 90
      499
 91
      502
 93
      121
310
9053130303A310000000000001650100
  0
ACAD_PROXY_OBJECT
  5
5A
102
{ACAD_REACTORS
330
48
102
}
330
48
100
AcDbProxyObject
 90
      499
 91
      502
 93
      257
310
90E312F31323822203D2031272D3022000000000000200FC000000000000284000
  0
ACAD_PROXY_OBJECT
  5
5B
102
{ACAD_REACTORS
330
48
102
}
330
48
100
AcDbProxyObject
 90
      499
 91
      502
 93
      249
310
90D312F363422203D2031272D3022000000000000240FC000000000000284000
  0
ACAD_PROXY_OBJECT
  5
5C
102
{ACAD_REACTORS
330
48
102
}
330
48
100
AcDbProxyObject
 90
      499
 91
      502
 93
      249
310
90D312F333222203D2031272D3022000000000000280FC000000000000284000
  0
ACAD_PROXY_OBJECT
  5
5D
102
{ACAD_REACTORS
330
48
102
}
330
48
100
AcDbProxyObject
 90
      499
 91
      502
 93
      249
310
90D312F313622203D2031272D30220000000000002C0FC000000000000284000
  0
ACAD_PROXY_OBJECT
  5
5E
102
{ACAD_REACTORS
330
48
102
}
330
48
100
AcDbProxyObject
 90
      499
 91
      502
 93
      249
310
90D332F333222203D2031272D30220000000000002E0FC000000000000284000
  0
ACAD_PROXY_OBJECT
  5
5F
102
{ACAD_REACTORS
330
48
102
}
330
48
100
AcDbProxyObject
 90
      499
 91
      502
 93
      241
310
90C312F3822203D2031272D3022000000000000300FC000000000000284000
  0
ACAD_PROXY_OBJECT
  5
60
102
{ACAD_REACTORS
330
48
102
}
330
48
100
AcDbProxyObject
 90
      499
 91
      502
 93
      249
310
90D332F313622203D2031272D3022000000000000320FC000000000000284000
  0
ACAD_PROXY_OBJECT
  5
61
102
{ACAD_REACTORS
330
48
102
}
330
48
100
AcDbProxyObject
 90
      499
 91
      502
 93
      241
310
90C312F3422203D2031272D3022000000000000340FC000000000000284000
  0
ACAD_PROXY_OBJECT
  5
62
102
{ACAD_REACTORS
330
48
102
}
330
48
100
AcDbProxyObject
 90
      499
 91
      502
 93
      241
310
90C332F3822203D2031272D3022000000000000360FC000000000000284000
  0
ACAD_PROXY_OBJECT
  5
63
102
{ACAD_REACTORS
330
48
102
}
330
48
100
AcDbProxyObject
 90
      499
 91
      502
 93
      241
310
90C312F3222203D2031272D3022000000000000380FC000000000000284000
  0
ACAD_PROXY_OBJECT
  5
64
102
{ACAD_REACTORS
330
48
102
}
330
48
100
AcDbProxyObject
 90
      499
 91
      502
 93
      241
310
90C332F3422203D2031272D30220000000000003A0FC000000000000284000
  0
ACAD_PROXY_OBJECT
  5
65
102
{ACAD_REACTORS
330
48
102
}
330
48
100
AcDbProxyObject
 90
      499
 91
      502
 93
      161
310
90A3122203D2031272D30224000000000000284000
  0
ACAD_PROXY_OBJECT
  5
66
102
{ACAD_REACTORS
330
48
102
}
330
48
100
AcDbProxyObject
 90
      499
 91
      502
 93
      257
310
90E312D312F3222203D2031272D30220000000000003E0FC000000000000284000
  0
ACAD_PROXY_OBJECT
  5
67
102
{ACAD_REACTORS
330
48
102
}
330
48
100
AcDbProxyObject
 90
      499
 91
      502
 93
      225
310
90A3322203D2031272D302200000000000002100000000000000284000
  0
ACAD_PROXY_OBJECT
  5
68
102
{ACAD_REACTORS
330
48
102
}
330
48
100
AcDbProxyObject
 90
      499
 91
      502
 93
      225
310
90A3622203D2031272D302200000000000006100000000000000284000
  0
ACAD_PROXY_OBJECT
  5
69
102
{ACAD_REACTORS
330
48
102
}
330
48
100
AcDbProxyObject
 90
      499
 91
      502
 93
      249
310
90D31272D3022203D2031272D30220000000000000A100000000000000284000
  0
ACAD_PROXY_OBJECT
  5
2F
102
{ACAD_REACTORS
330
2A
102
}
330
2A
100
AcDbProxyObject
 90
      499
 91
      501
 93
      436
310
42CC9915DA5C99599C985B595049028333333333333E3BF0000000000000FB0107901411070040501600405405064090741402480A0340
1001
ACAD
1000
AcDbSavedByObjectVersion
1070
     0
  0
ACAD_PROXY_OBJECT
  5
31
102
{ACAD_REACTORS
330
2A
102
}
330
2A
100
AcDbProxyObject
 90
      499
 91
      501
 93
      500
310
424CD108121A5919195B90640502408333333333333E3BF0000000000000FB01079024090700405020000000000001110200405405064090740C02480A0340
1001
ACAD
1000
AcDbSavedByObjectVersion
1070
     0
  0
ACAD_PROXY_OBJECT
  5
30
102
{ACAD_REACTORS
330
2A
102
}
330
2A
100
AcDbProxyObject
 90
      499
 91
      501
 93
      436
310
42CCD915DA5C99599C985B595059028333333333333E3BF0000000000000FB0107901411070040501600405405064090741402480A0340
1001
ACAD
1000
AcDbSavedByObjectVersion
1070
     0
  0
ACAD_PROXY_OBJECT
  5
32
102
{ACAD_REACTORS
330
2A
102
}
330
2A
100
AcDbProxyObject
 90
      499
 91
      501
 93
      388
310
4150985CDA58D07406404333333333333E3BF0000000000000FB0107A41107004050150841D405064090741402480A0350
1001
ACAD
1000
AcDbSavedByObjectVersion
1070
     0
  0
ACAD_PROXY_OBJECT
  5
36
102
{ACAD_REACTORS
330
2A
102
}
330
2A
100
AcDbProxyObject
 90
      499
 91
      501
 93
      428
310
42109C9A59DA1D195B90C409028333333333333E3BF0000000000000FB010790141107004050150841D405064090741402480A029950
1001
ACAD
1000
AcDbSavedByObjectVersion
1070
     0
  0
ACAD_PROXY_OBJECT
  5
3A
102
{ACAD_REACTORS
330
2A
102
}
330
2A
100
AcDbProxyObject
 90
      499
 91
      501
 93
      452
310
42D0DBDB1BDC90DA185B99D95104090240C333333333333E3BF0000000000000FB0108901411070040501508421405064090741402480A0350
1001
ACAD
1000
AcDbSavedByObjectVersion
1070
     0
  0
ACAD_PROXY_OBJECT
  5
34
102
{ACAD_REACTORS
330
2A
102
}
330
2A
100
AcDbProxyObject
 90
      499
 91
      501
 93
      500
310
4290DBDB98D95C1D1D585B10940D028333333333333E3BF0000000000000FB0107902409070040501000000000000111010841D405064090740C02480A0340
1001
ACAD
1000
AcDbSavedByObjectVersion
1070
     0
  0
ACAD_PROXY_OBJECT
  5
35
102
{ACAD_REACTORS
330
2A
102
}
330
2A
100
AcDbProxyObject
 90
      499
 91
      501
 93
      412
310
40D11A5B50B409028333333333333E3BF0000000000000FB010790141107004050150841D405064090741402480A02677FFFFFD0
1001
ACAD
1000
AcDbSavedByObjectVersion
1070
     0
  0
ACAD_PROXY_OBJECT
  5
39
102
{ACAD_REACTORS
330
2A
102
}
330
2A
100
AcDbProxyObject
 90
      499
 91
      501
 93
      444
310
42D19858D95C185D1D195C9B90F409028333333333333E3BF0000000000000FB010790141107004050150841D405064090741402480A0350
1001
ACAD
1000
AcDbSavedByObjectVersion
1070
     0
  0
ACAD_PROXY_OBJECT
  5
2B
102
{ACAD_REACTORS
330
2A
102
}
330
2A
100
AcDbProxyObject
 90
      499
 91
      501
 93
      388
310
41119B185D240901404333333333333E3BF0000000000000F9010740A41107004050150841D405064090741402480A1B50
1001
ACAD
1000
AcDbSavedByObjectVersion
1070
     0
  0
ACAD_PROXY_OBJECT
  5
2C
102
{ACAD_REACTORS
330
2A
102
}
330
2A
100
AcDbProxyObject
 90
      499
 91
      501
 93
      476
310
43519B185D15DA5D1A115919D95CD0140901404333333333333E3BF0000000000000F9010740901411070040501600405405064090741402480A1B50
1001
ACAD
1000
AcDbSavedByObjectVersion
1070
     0
  0
ACAD_PROXY_OBJECT
  5
2D
102
{ACAD_REACTORS
330
2A
102
}
330
2A
100
AcDbProxyObject
 90
      499
 91
      501
 93
      412
310
41D1DBDD5C985D5910240902404333333333333E3BF0000000000000F9010740A411070040501641D405064090741402480A1B50
1001
ACAD
1000
AcDbSavedByObjectVersion
1070
     0
  0
ACAD_PROXY_OBJECT
  5
2E
102
{ACAD_REACTORS
330
2A
102
}
330
2A
100
AcDbProxyObject
 90
      499
 91
      501
 93
      500
310
4411DBDD5C985D5915DA5D1A115919D95CD0340902404333333333333E3BF0000000000000F9010740901411070040501600405405064090741402480A1B50
1001
ACAD
1000
AcDbSavedByObjectVersion
1070
     0
  0
ACAD_PROXY_OBJECT
  5
38
102
{ACAD_REACTORS
330
2A
102
}
330
2A
100
AcDbProxyObject
 90
      499
 91
      501
 93
      444
310
42D31A5B995C185D1D195C9B90E409028333333333333E3BF0000000000000FB010790141107004050750841D405064090741402483A0350
1001
ACAD
1000
AcDbSavedByObjectVersion
1070
     0
  0
ACAD_PROXY_OBJECT
  5
33
102
{ACAD_REACTORS
330
2A
102
}
330
2A
100
AcDbProxyObject
 90
      499
 91
      501
 93
      420
310
425499585B1A5CDD1A58D08409028333333333333E3BF0000000000000FB01079019070040501508421405064090741402480A1B40
1001
ACAD
1000
AcDbSavedByObjectVersion
1070
     0
  0
ACAD_PROXY_OBJECT
  5
37
102
{ACAD_REACTORS
330
2A
102
}
330
2A
100
AcDbProxyObject
 90
      499
 91
      501
 93
      412
310
41D51A1A58DAD95B90D409028333333333333E3BF0000000000000FB010790141107004050150C41D405064090741402480A0350
1001
ACAD
1000
AcDbSavedByObjectVersion
1070
     0
  0
ACAD_PROXY_OBJECT
  5
430
102
{ACAD_REACTORS
330
427
102
}
330
427
100
AcDbProxyObject
 90
      499
 91
      504
 93
       58
310
4196800000000000
  0
ACAD_PROXY_OBJECT
  5
446
102
{ACAD_REACTORS
330
427
102
}
330
427
100
AcDbProxyObject
 90
      499
 91
      504
 93
      306
310
497A00C180079114D51653117A80C040079ECB811500550044400000000000003A80C040079F40
  0
ACAD_PROXY_OBJECT
  5
431
102
{ACAD_REACTORS
330
427
102
}
330
427
100
AcDbProxyObject
 90
      499
 91
      504
 93
      354
310
4AC0400980079ED1509091510C114C0B510D508E4B4D0E4E0D8B505110518B518D904D8DD04C50CD918C515F40
  0
ACAD_PROXY_OBJECT
  5
42A
102
{ACAD_REACTORS
330
427
102
}
330
427
100
AcDbProxyObject
 90
      499
 91
      504
 93
       50
310
41404000000780
  0
ACAD_PROXY_OBJECT
  5
42F
102
{ACAD_REACTORS
330
427
102
}
330
427
100
AcDbProxyObject
 90
      499
 91
      504
 93
       58
310
4196800100000000
  0
ACAD_PROXY_OBJECT
  5
42C
102
{ACAD_REACTORS
330
427
102
}
330
427
100
AcDbProxyObject
 90
      499
 91
      504
 93
       90
310
429500468000000000000000
  0
ACAD_PROXY_OBJECT
  5
42E
102
{ACAD_REACTORS
330
427
102
}
330
427
100
AcDbProxyObject
 90
      499
 91
      504
 93
       58
310
419680074A800000
  0
ACAD_PROXY_OBJECT
  5
42D
102
{ACAD_REACTORS
330
427
102
}
330
427
100
AcDbProxyObject
 90
      499
 91
      504
 93
       90
310
429500464000000000000000
  0
ACAD_PROXY_OBJECT
  5
433
102
{ACAD_REACTORS
330
427
102
}
330
427
100
AcDbProxyObject
 90
      499
 91
      504
 93
       90
310
428A00000000000000000000
  0
ACAD_PROXY_OBJECT
  5
436
102
{ACAD_REACTORS
330
427
102
}
330
427
100
AcDbProxyObject
 90
      499
 91
      504
 93
       90
310
429500400000000000000000
  0
ACAD_PROXY_OBJECT
  5
43C
102
{ACAD_REACTORS
330
427
102
}
330
427
100
AcDbProxyObject
 90
      499
 91
      504
 93
      218
310
46828000000000000000000000000000000000000000000000000000
  0
ACAD_PROXY_OBJECT
  5
438
102
{ACAD_REACTORS
330
427
102
}
330
427
100
AcDbProxyObject
 90
      499
 91
      504
 93
      218
310
46828000000000000000000000000000000000000000000000000000
  0
ACAD_PROXY_OBJECT
  5
43B
102
{ACAD_REACTORS
330
427
102
}
330
427
100
AcDbProxyObject
 90
      499
 91
      504
 93
      218
310
46828000000000000000000000000000000000000000000000000000
  0
ACAD_PROXY_OBJECT
  5
439
102
{ACAD_REACTORS
330
427
102
}
330
427
100
AcDbProxyObject
 90
      499
 91
      504
 93
      218
310
46828000000000000000000000000000000000000000000000000000
  0
ACAD_PROXY_OBJECT
  5
43A
102
{ACAD_REACTORS
330
427
102
}
330
427
100
AcDbProxyObject
 90
      499
 91
      504
 93
      218
310
46828000000000000000000000000000000000000000000000000000
  0
ACAD_PROXY_OBJECT
  5
437
102
{ACAD_REACTORS
330
427
102
}
330
427
100
AcDbProxyObject
 90
      499
 91
      504
 93
      218
310
46828000000000000000000000000000000000000000000000000000
  0
ACAD_PROXY_OBJECT
  5
434
102
{ACAD_REACTORS
330
427
102
}
330
427
100
AcDbProxyObject
 90
      499
 91
      504
 93
       90
310
429500400000000000000000
  0
ACAD_PROXY_OBJECT
  5
435
102
{ACAD_REACTORS
330
427
102
}
330
427
100
AcDbProxyObject
 90
      499
 91
      504
 93
       42
310
411180000000
  0
ACAD_PROXY_OBJECT
  5
42B
102
{ACAD_REACTORS
330
427
102
}
330
427
100
AcDbProxyObject
 90
      499
 91
      504
 93
       50
310
41404000000780
  0
ACAD_PROXY_OBJECT
  5
428
102
{ACAD_REACTORS
330
427
102
}
330
427
100
AcDbProxyObject
 90
      499
 91
      504
 93
       58
310
4196800040000000
  0
ACAD_PROXY_OBJECT
  5
429
102
{ACAD_REACTORS
330
427
102
}
330
427
100
AcDbProxyObject
 90
      499
 91
      504
 93
       58
310
4196801180000000
  0
ACAD_PROXY_OBJECT
  5
43F
102
{ACAD_REACTORS
330
427
102
}
330
427
100
AcDbProxyObject
 90
      499
 91
      504
 93
       90
310
429500400000000000000000
  0
ACAD_PROXY_OBJECT
  5
445
102
{ACAD_REACTORS
330
427
102
}
330
427
100
AcDbProxyObject
 90
      499
 91
      504
 93
      218
310
46828000000000000000000000000000000000000000000000000000
  0
ACAD_PROXY_OBJECT
  5
441
102
{ACAD_REACTORS
330
427
102
}
330
427
100
AcDbProxyObject
 90
      499
 91
      504
 93
      218
310
46828000000000000000000000000000000000000000000000000000
  0
ACAD_PROXY_OBJECT
  5
444
102
{ACAD_REACTORS
330
427
102
}
330
427
100
AcDbProxyObject
 90
      499
 91
      504
 93
      218
310
46828000000000000000000000000000000000000000000000000000
  0
ACAD_PROXY_OBJECT
  5
442
102
{ACAD_REACTORS
330
427
102
}
330
427
100
AcDbProxyObject
 90
      499
 91
      504
 93
      218
310
46828000000000000000000000000000000000000000000000000000
  0
ACAD_PROXY_OBJECT
  5
443
102
{ACAD_REACTORS
330
427
102
}
330
427
100
AcDbProxyObject
 90
      499
 91
      504
 93
      218
310
46828000000000000000000000000000000000000000000000000000
  0
ACAD_PROXY_OBJECT
  5
440
102
{ACAD_REACTORS
330
427
102
}
330
427
100
AcDbProxyObject
 90
      499
 91
      504
 93
      218
310
46828000000000000000000000000000000000000000000000000000
  0
ACAD_PROXY_OBJECT
  5
43D
102
{ACAD_REACTORS
330
427
102
}
330
427
100
AcDbProxyObject
 90
      499
 91
      504
 93
       90
310
429500400000000000000000
  0
ACAD_PROXY_OBJECT
  5
43E
102
{ACAD_REACTORS
330
427
102
}
330
427
100
AcDbProxyObject
 90
      499
 91
      504
 93
       42
310
411180000000
  0
ACAD_PROXY_OBJECT
  5
432
102
{ACAD_REACTORS
330
427
102
}
330
427
100
AcDbProxyObject
 90
      499
 91
      504
 93
      354
310
4AC0400980079ED19051508C50CCCC8B514C0C4E4B4C4C510D4B4E4C8E508B4C0C10CC11118C8D4D9150CD1F40
  0
DICTIONARYVAR
  5
44C
102
{ACAD_REACTORS
330
447
102
}
330
447
100
DictionaryVariables
280
     0
  1
1:1
  0
DICTIONARYVAR
  5
44B
102
{ACAD_REACTORS
330
447
102
}
330
447
100
DictionaryVariables
280
     0
  1
80.000000
  0
DICTIONARYVAR
  5
44A
102
{ACAD_REACTORS
330
447
102
}
330
447
100
DictionaryVariables
280
     0
  1
5.000000
  0
ENDSEC
  0
EOF
